Oops, an error
Loading. Please wait.

Heil Hitler Bass Tab

version 1
version 1

Whole song

92 views 3 this week
no commentswrite comment
1 2 3 4 5
3 more votes to show rating
add to favorites
launch autoscroll
font size
0
reset
guitar tuner
Autoscroll
slow
fast
+/-
esc
set tempo
stop
Help us to improve Ultimate-Guitar.com Take our survey!
×
Nok, hey, nok, hey, ha, hey.

Estrofas:
|----------------------------------
|----------------------------------
|-----------------------5^4^2------
|-2---2^2----2^4^5-----------------


CORO:
Hay una cosa que se llama jabón, mata a los piojos y te quita el olor
En la oche alemana, los judíos rezan
Cien años de lucha solitaria, son suficientes para reventar

|---------------------------------
|---------------------------------
|---------------------------------
|-4^4^4--4^4^4--------------------


|---------------------------------
|---------------------------------
|---------------------------------
|-3^2-4^2-5^2-6^2-----------------

Después todo esto se repite la parte de las estrofas:

Heil Hitler!!!!!!!!!!!!!!!!!!!!!!!!!!
Suggest correction
Give kudos to tab author, rate the tab!
1 2 3 4 5
comments
print report bad tab
guest
You may want to rate the tab now too:
select rating
Wanna post a correction for this tab? Suggest correction