Oops, an error
Loading. Please wait.

Heil Hitler Bass Tab

version 2
version 2

Whole song

81 views 3 this week
no commentswrite comment
1 2 3 4 5
3 more votes to show rating
add to favorites
launch autoscroll
font size
0
reset
guitar tuner
Autoscroll
slow
fast
+/-
esc
set tempo
stop
Help us to improve Ultimate-Guitar.com Take our survey!
×
Bueno, la otra tab para bajo de
"Heil, Hitler!" de los Ilegales
no es que esté tremendamente mal,
pero la vamos a corregir.

A)
-----|------|--------------------
-----|------|--------------------
-----|------|----------4--5--4---
---2-|-2--2-|-2--4--5------------

B)
--------------|--------------
--------------|--------------
--------------|--------------
---4--4--4--4-|-4--4--4--4---

C)
-------------------------
-------------------------
-------------------------
---3--2--4--2--5--2--6---

Final)
-------
-------
-------
---2---

...Creo que esto no tiene fallo.
Suggest correction
Give kudos to tab author, rate the tab!
1 2 3 4 5
comments
print report bad tab
guest
You may want to rate the tab now too:
select rating
Wanna post a correction for this tab? Suggest correction