Oops, an error
Loading. Please wait.

Hombre Solitario Chords

63 views 1 this week
no commentswrite comment
1 2 3 4 5
3 more votes to show rating
add to favorites
launch autoscroll
font size
0
reset
transpose
0
reset
display chords
guitar tuner
×
Best way to learn
"Hombre Solitario"
Autoscroll
slow
fast
+/-
esc
set tempo
stop
TAB A:

E------------------------------------------------
B------------------------------------------------
G------------------------------------------------
D----0-2-3-3-2-0---------------------------------
A--2--------------2------------------------------
E------------------------------------------------

TAB B:

E------------------------------------------------
B------------------------------------------------
G----0-2-3-3-2-0---------------------------------
D--2--------------2------------------------------
A------------------------------------------------
E------------------------------------------------

TAB A            TAB A                  TAB A
El hombre solitario, ha llegado a la ciudad,
                TAB B          F#
todos le odiaron, desde que llegó.

           B                           F#
Hombre solitario, traigo un regalo para ti,
                  B                           Db
una bala en mi revolver, está esperando para salir.(Bis)

Soy un viejo policia, defiendo el orden y la ley,
ese hombre misterioso, es un peligro para la ley.

Hombre solitario, traigo un regalo para ti,
una bala en mi revolver, está esperando para salir.(Bis)

El hombre solitario, vaya una decepción,
resultó ser un pobre hombre, que trabajaba de peón.

Hombre solitario, traigo un regalo para ti,
una bala en mi revolver, está esperando para salir.(Bis)
Suggest correction
Give kudos to tab author, rate the tab!
1 2 3 4 5
comments
print report bad tab
guest
You may want to rate the tab now too:
select rating
Wanna post a correction for this tab? Suggest correction