Oops, an error
Loading. Please wait.

La Chica Del Club De Golf Tab

75 views 1 this week
no commentswrite comment
1 2 3 4 5
3 more votes to show rating
add to favorites
launch autoscroll
font size
0
reset
how to read this tab
guitar tuner
Autoscroll
slow
fast
+/-
esc
set tempo
stop
Help us to improve Ultimate-Guitar.com Take our survey!
×
   p - Pull off
   h - Hammer on
   s - Slide
   v - Vibrato
   b - Bend
  () - Armónico Artificial

Acordes utilizados

Em       Bm        G        Am        C         D
7         7        3        5         3         5
8         7        3        5         5         7
9         7        4        5         5         7
9         9        5        7         5         7
X         X        X        X         X         X
X         X        X        X         X         X

Introducción
Em Bm G G x 2

Em    Bm     G       G
Te reconocí,
Em    Bm     G       G
En el club de golf.

Em    Bm     G       G
Veo madurar manzanas y a ti...

Coro
Am         D
Sonríes... burbujas,

Am          D
Yo llevo burbujas...

           Em
Pero en la vena.


*Aquí igual que las estrofas anteriores

Se arruinó mi familia,
nos echaron del club.
No pagaba las cuotas,
y me dejaste tú.

*Aquí igual que el coro

He saltado la verja,
me gustan tus quejas.
Sube la marea.

Puente
Cm               Am      C            Am
Aquí está la tumba... de nuestro amor,

Cm             Em        D         G
Los vestuarios... en el club de golf.

Cm               Am      C            Am
Aquí están los restos... de nuestro amor,

Cm             Em        D         G
Una toalla mojada... y una botella de ron.

Solo
------10p7-----------------15p12-------------------10p7--------------
--10b------10p8v-------15b-------15------------10b-------10p8v-------
------------------------------------12v------------------------------
---------------------------------------------------------------------
---------------------------------------------------------------------
---------------------------------------------------------------------


-------15p12---------------------------------------------------------
--15b--------15-12v-------8--------------------8---------------------
------------------------9-------7v-----------9--------7v-------------
-----------------------------9---------------------9-----------------
---------------------------------------------------------------------
---------------------------------------------------------------------


------10p7-----------------15p12-------------------10p7--------------
--10b------10p8v-------15b-------15------------10b-------10p8v-------
------------------------------------12v------------------------------
---------------------------------------------------------------------
---------------------------------------------------------------------
---------------------------------------------------------------------


-------15p12---------------------------------------------------------
--15b--------15-12v-------8--------------------8---------------------
------------------------9-------7v-----------9--------7v-------------
-----------------------------9---------------------9-----------------
---------------------------------------------------------------------
---------------------------------------------------------------------

*Puente

Aquí está la tumba... de nuestro amor,
los vestuarios... en el club de golf.

Aquí están los restos... de nuestro amor,
una toalla mojada... y una botella de ron.

*Estrofa

Estuviste en Italia.
me escribiste una vez.

Intenté contestarte,
y nunca contesté.

*Coro

Sonríes... burbujas,
yo llevo burbujas...
pero en la vena.

*Estrofa

Es tu cumpleaños,
me consuela saber,
que habrán llegado marchitas,
las flores que envié.

*Coro

No ríes... no lloras,
sólo hablas... a solas.
¡Qué flores tan raras!
Suggest correction
Give kudos to tab author, rate the tab!
1 2 3 4 5
comments
print report bad tab
guest
You may want to rate the tab now too:
select rating
Wanna post a correction for this tab? Suggest correction