Oops, an error
Loading. Please wait.

No Me Gusta Chords

45 views 1 this week
no commentswrite comment
1 2 3 4 5
3 more votes to show rating
add to favorites
launch autoscroll
font size
0
reset
transpose
0
reset
display chords
guitar tuner
×
Best way to learn
"No Me Gusta"
Autoscroll
slow
fast
+/-
esc
set tempo
stop
|-------------------
|-------------------
|-------------------
|-------------------
|-------0-1/2-0-----
|-0-0-3---------3-0-   X2

|-------------------
|-------------------
|-------------------
|-------0-0/1-0-----
|-0-0-3---------3---
|-------------------   X2

|-------------------
|-------------------
|-------------------
|-------------------
|-------0-1/2-0-----
|-0-0-3---------3-0-   X2

G-F-G-G-F

E
No me gusta el trabajo
nací cansado
A
No me gusta el trabajo
E
nací cansado
G          F
el trabajo es
G          F
una gran putada

E
Tengo un amigo que no tiene remedio
A
trabaja todo el día porque es un cerdo
E
solo de pensarlo me encuentro cansado
A
y eso que me paso todo el día tumbado

(solo)

No me gusta el trabajo
nací cansado
No me gusta el trabajo
nací cansado
el trabajo es
una gran putada

Me echaron del curro por ser un vago
estoy muy contento de estar en el paro
tumbado en mi cama sin mover un dedo
cuento las arañas que hay en el techo


para oirla:
Suggest correction
Give kudos to tab author, rate the tab!
1 2 3 4 5
comments
print report bad tab
guest
You may want to rate the tab now too:
select rating
Wanna post a correction for this tab? Suggest correction