Oops, an error
Loading. Please wait.

Odio Los Pasos Dobles Bass Tab

80 views 1 this week
no commentswrite comment
1 2 3 4 5
3 more votes to show rating
add to favorites
launch autoscroll
font size
0
reset
guitar tuner
Autoscroll
slow
fast
+/-
esc
set tempo
stop
Help us to improve Ultimate-Guitar.com Take our survey!
×
Esta canción consta de tres partes
(aquí referidas, según orden de ejecución):
-Punteo de pasodoble,
-Estrofas,
-Estribillos.
El punteo de pasodoble no me lo sé ahora mismo,
pero ha de ser algo con octava de Mi o La,
siguiendo la escala de guitarra.
En cualquier caso, ese Mi habría de ser mayormente
el que hace el segundo traste en la segunda cuerda.

Y ahora las otras dos partes:

ESTROFAS)
--------------------------------------------------
--------------------------------------------------
--------------------------------------------------
--5--5--5--5--5--5--5--5--2--2--2--2--2--2--4--5--
sigue
--------------------------------------------------
--------------------------------------------------
--2--2--2--2--2--2--2-----------------------------
-----------------------5--0--0--0--0--0--0--2--4--

ESTRIBILLOS)
--------------------------------------------------
--------------------------------------------------
--------------------------3--3--3--3--2--2--2--2--
--5--5--5--5--5--5--5--5--------------------------

¡¡Olé!!
Suggest correction
Give kudos to tab author, rate the tab!
1 2 3 4 5
comments
print report bad tab
guest
You may want to rate the tab now too:
select rating
Wanna post a correction for this tab? Suggest correction