Oops, an error
Loading. Please wait.

Odio Los Pasos Dobles Tab

215 views 3 this week
no commentswrite comment
1 2 3 4 5
3 more votes to show rating
add to favorites
launch autoscroll
font size
0
reset
how to read this tab
guitar tuner
×
Best way to learn
"Odio Los Pasos Dobles"
Autoscroll
slow
fast
+/-
esc
set tempo
stop
Intro 
                                                                     E E
e |--0-----0--1---0---------------------------------0-------------------|
B |-----3------------3--1--0-----------0---0--1--3-----0--1-----0-------|
G |---------------------------2--1--2------------------------2----------|
D |----------------------------------------------------------------2----|
A |---------------------------------------------------------------------|
E |---------------------------------------------------------------------|

        Una vez acabado el punteillo, se tocan dos negras de MI (E), que
   corresponderian al Olé!


 Patrón de Bajo mientras se realiza el otro punteo:

G |----------------------------------------------------------------------|
D |----------------------------------------------------------------------|
A |-------------------------------------2-2-2-2-2-2-2-2------------------|
E |--5-5-5-5-5-5-5-5---2-2-2-2-2-2-4-5-------------------0-0-0-0-0-0-2-4-|


 Punteo de la guitarra mientras se realiza el patrón de Bajo:

e |--7*--7--5-----5----7*--7--5-----7----7*--7--5-----5--7*--7--|
B |------------7-----------------7-----------------7------------|
G |-------------------------------------------------------------|
D |-------------------------------------------------------------|
A |-------------------------------------------------------------|
E |-------------------------------------------------------------|
                *=Bending de tono entero.

Versos:

A  F#  B  E -->   Estos son los acorde que se toca mientras canta los verso
                  pero yo creo que se han de tocas con cejillas y solo las notas 
                  mas agudas del acorde

Estribillo:

A                   C  B
Odio los paso dobles 


Secuencia de la guitarra despues de cada estribillo, menos cuando toca la intro:
  
    A                F#               B                E
e |--------------------------------------------------------------------|
B |--------------------------------------------------------------------|
G |-6-6-6-6-6-6-6-6--3-3-3-3-3-3-3-3--8-8-8-8-8-8-8-8--1-1-1-1-1-1-1-1-|
D |-7-7-7-7-7-7-7-7--4-4-4-4-4-4-4-4--9-9-9-9-9-9-9-9--2-2-2-2-2-2-2-2-|
A |--------------------------------------------------------------------|
E |--------------------------------------------------------------------|
Suggest correction
Give kudos to tab author, rate the tab!
1 2 3 4 5
comments
print report bad tab
guest
You may want to rate the tab now too:
select rating
Wanna post a correction for this tab? Suggest correction