Oops, an error
Loading. Please wait.

Revuelta Juvenil En Mongolia Chords

55 views 1 this week
no commentswrite comment
1 2 3 4 5
3 more votes to show rating
add to favorites
launch autoscroll
font size
0
reset
transpose
0
reset
display chords
guitar tuner
×
Best way to learn
"Revuelta Juvenil En Mongolia"
Autoscroll
slow
fast
+/-
esc
set tempo
stop
Esto es el principio:
RIFF 1
e|---4----2----1---|---x-x-x-x---|--1---2--4-|--x-x-x-x-x-x -
B|---6----4----3---|---x-x-x-x---|--3---4--6-|-x-x-x-x-x-x |
G|---6----4----3---|---x-x-x-x---|--3---4--6-|-x-x-x-x-x-x |_ Igual que el anterior.
D|---5----2----2---|---x-x-x-x---|--2---2--5-|-x-x-x-x-x-x |
A|---4----2----1---|---x-x-x-x---|--1---2--4-|-x-x-x-x-x-x | 
E|---4----2-----1---|--x-x-x-x---|--1--2---4-|-x-x-x-x-x-x--

RIFF 2
e|---1----2----4--|
B|---3----4----6--|
G|---3----4----6--|
D|---2----2----5--|
A|---1----2----4--|
E|---1----2----4--|

RIFF 3 (no estoy seguro)
e|---------------------------------------|
B|--2-----------------------------------|
G|------3^2^0--4^3^2-----------------|
D|--------------------------------------|
A|--------------------------------------|
E|--------------------------------------|

RIFF 4
e|---4----2----1--|
B|---5----4----3--|
G|---5----4----3--|
D|---3----2----2--|
A|---4----2----1--|
E|---4----2-----1--|

INTRO: Riff 1 y Riff 2

Cansados de guerras solitarias, (Riff 4)
hoy los chicos se juntan en el parque, (Riff 2) 
llevan los colores de guerra, (Riff 4)
y zapatos deportivos. ( Riff 2)

CORO: 
La revuelta juvenil en Mongolia, (Riff 3)
suenan los alarmas de las farmacias, (Riff 3)
no hay escaparate que se resista, (Riff 3)
todos los policías con dolor de estomago. (Riff 3)

ESTRIBILLO: 
Salir de la escuela,
siendo otro,
no es buena manera de crecer.

Vente con nosotros,
vamos a buscar líos,
no seremos apresados,
ya no hay reformatorios.

CORO
ESTRIBILLO

En el estribillo es lo mismo
-----------------------------------
RIFF 1 (Introduccion)
RIFF 2 (Introduccion y estrofas)
RIFF 3 (Coro)
RIFF 4 (Estrofas)

e|--4--------3-4----------
B|---4-4^5---------------
___________________________________
Mezcla las drogas con el alcohol, hierve la sangre
en tu corazon.
Aqui va unas palabras para Hugito 'Tienes guitarra, 
no sabes tocar, suena en los clubs un blues secreto'.
'Todo lo que digais que somos lo somos y aún peor O.K.
Suggest correction
Give kudos to tab author, rate the tab!
1 2 3 4 5
comments
print report bad tab
guest
You may want to rate the tab now too:
select rating
Wanna post a correction for this tab? Suggest correction