Oops, an error
Loading. Please wait.

Saber Vivir Bass

20 views 1 this week
no commentswrite comment
1 2 3 4 5
3 more votes to show rating
add to favorites
launch autoscroll
font size
0
reset
guitar tuner
×
Best way to learn
"Saber Vivir"
Autoscroll
slow
fast
+/-
esc
set tempo
stop
Intro

-----------|----------------
-----------|----------------
---5---5---|---5--5--5--5---
-----------|----------------


Estrofas

------------|------------
------------|------------
------------|------------
---0--0--0--|--3--3--3---


Estribillos

---------------|---------------
---------------|---------------
---5--5--5--5--|--4--4--4--4---
---------------|---------------
sigue
---------------|---------------
---------------|---------------
---------------|---------------
---5--5--5--5--|--4--4--4--4---
sigue
----------------
----------------
---3--3--3--3---
----------------


Final

----------------
----------------
----------------
---0--0--0--3---
Suggest correction
Give kudos to tab author, rate the tab!
1 2 3 4 5
comments
print report bad tab
guest
You may want to rate the tab now too:
select rating
Wanna post a correction for this tab? Suggest correction