Oops, an error
Loading. Please wait.

Siento Tab

19 views 1 this week
no commentswrite comment
1 2 3 4 5
3 more votes to show rating
add to favorites
launch autoscroll
font size
0
reset
how to read this tab
guitar tuner
Autoscroll
slow
fast
+/-
esc
set tempo
stop
Help us to improve Ultimate-Guitar.com Take our survey!
×
Intro: D - Bm - G - A (x2)
e|--------------------------------------------------------------------
B|-----------------------------7.--------------7.-6/7----------6/7----
G|-7.-6-7-7/9-7-7-6-7.-6-7-7/9----7-6-7.-6-7-9.-------9-9-7-7.-----9--
D|--------------------------------------------------------------------
A|--------------------------------------------------------------------
E|--------------------------------------------------------------------

e|--------------------------------5-5/7----------------------|
B|------------7.----------------7-------------7-7.-8-7-------|
G|-7.-6-7-7/9----7-6-7.---6-7-9-----------7-9----------9.-7.-|
D|----------------------9---------------9--------------------|
A|-----------------------------------------------------------|
E|-----------------------------------------------------------|

D                    Bm                       G
Siento, que  todo ha terminado, que todo ha sido en vano
     D               G      A
por culpa de mi estupidez
D                  Bm                   G
Siento que he dado demasiado, sin pedir nada a cambio
     D            G                  A
tan sólo por creer, creer en ti.

Pre Coro
G                    D                       G
Siento que la vida se me va, que no hay razón para soñar
       D           G               A
que esta vida no me sirve si no estás.

Coro
D                 Bm
Dime que no es así, dime que vivo en ti
G                  D      
dile a mi corazón, que la vida no soy
     G                  A
que tú eres sólo para mi
D                  F#            Bm
Siento que voy a morir, dime que no es así
G                 D                  
dime que nuestro tu amor, es como el cielo azul
      G                   A
tan grande que lo que vi.

Solo ( D - Bm - G - D - G - A - D - Bm - G - D - Gm - A )
e|----------------------------------------6/7-7.--------------
B|-------7-8-7---------------7-8-7-------------------9/10-10--
G|---7-9-------9.-9-7----7-9-------9.-9/7--------7-7----------
D|-7-------------------7--------------------------------------
A|------------------------------------------------------------
E|------------------------------------------------------------

e|--------------------------------------6/7.---7-9-10-9-7----7-7/5-----
B|------8-7-------------------7/10-10-7-------7-----------10-------8-8-
G|-7-9.-----8/9-7-6-7.------7----------------7-------------------------
D|----------------------7-9--------------------------------------------
A|---------------------------------------------------------------------
E|---------------------------------------------------------------------

e|--------------7--------------------------------------------------|
B|---9/10-10-10--------------------11-11.-10-12-10-----------------|
G|-7--------------9-7-7----------------------------12-11-9---------|
D|----------------------9-8--11/12-------------------------12-9-12-|
A|-----------------------------------------------------------------|
E|-----------------------------------------------------------------|

D                   Bm
Siento el alma en mil pedazos
               G        D      G         A
mis párpados cansados de tanto llorar por ti
D                  Bm
Siento el corazón ahogado
               G       D         G         A
en un mar de llanto tan sólo por creer en ti.

Pre Coro
G                    D                      G
Siento que la vida se me va, que no hay razón para soñar
                    A               A#
que esta vida no me sirve si no estás.

Coro (x2)
D#                 Cm
Dime que no es así, dime que vivo en ti
G#            D#      
dile a mi corazón, que la vida no soy
    G#                   A#
que tú eres sólo para mi
D#                   G             Cm
Siento que voy a morir, dime que no es así
G#                 D#                  
dime que nuestro tu amor, es como el cielo azul
     G#       A#     D#
tan grande que lo que vi.

Final ( D# - Cm - G# - G#m - A - D# )
e|---------------------------------------------------------------11-|
B|-8.-----8--------------------------------------9-11-12.-11.-9.----|
G|------8---10-8-7-8/10-8.------8-7------7-8.--8--------------------|
D|----8-----------------------8-----10-8----------------------------|
A|-------------------------10---------------------------------------|
E|------------------------------------------------------------------|


 ·=========================·
 |   ;)  ¤«L·u·K·?  :)   |
 | luis_reque@  |
 ·=========================·
Suggest correction
Give kudos to tab author, rate the tab!
1 2 3 4 5
comments
print report bad tab
guest
You may want to rate the tab now too:
select rating
Wanna post a correction for this tab? Suggest correction