Oops, an error
Loading. Please wait.

Soy Un Macarra Tab

422 views 6 this week
no commentswrite comment
1 2 3 4 5
3 more votes to show rating
add to favorites
launch autoscroll
font size
0
reset
how to read this tab
guitar tuner
×
Best way to learn
"Soy Un Macarra"
Autoscroll
slow
fast
+/-
esc
set tempo
stop
+ Tabulados de made in spain!                   +
+ [                        +
+++++++++++++++++++++++++++++++++++++++++++++++++

SIMBOLOGIA 
           G-> GUITARRA
           B-> BAJO
           /-> SLIDE
           b-> BENDIN A LA DERECHA

  
  GUITARRA 

  [PARTE A]
e |-------------------------------------------------------------------|
B |-------------------------------------------------------------------|
G |-------------------------------------------------------------------|
D |-------------------------------------------------------------------|
A |--------------3-2-------------3-2-------------3-2-------------3-2--|
E |--0-0-2-2-3-3-----0-0-2-2-3-3-----0-0-2-2-3-3-----0-0-2-2-3-3------|
 

     MI   LA    DO    MI*
e |-----|-----|-----|-----|
B |--0--|--2--|--5--|--0--|
G |--1--|--2--|--5--|--1--|
D |--2--|--2--|--5--|--2--|
A |-----|-----|-----|--2--|
E |-----|-----|-----|--0--|

  [PARTE B]             
e |------4---4--| 
B |-------------| 
G |--3/4---3----| 
D |-------------| 
A |-------------| 
E |-------------| 

  [PARTE C]
e |------------------------------------------------------------------------|
B |------------------------------------------------------------------------|
G |--6b7-7-7-6b7-7-7-6b7-7-7--7-7------------------------------------------|
D |--6b7-7-7-6b7-7-7-6b7-7-7--7-7-7-7-7-7-10-10-10-10-7-7-7-7-10-10-10-10--|
A |-------------------------------7-7-7-7-10-10-10-10-7-7-7-7-10-10-10-10--|
E |------------------------------------------------------------------------|

   BAJO

  [PARTE A]
G |-------------------------------------------------------------------|
D |-------------------------------------------------------------------|
A |--------------3-2-------------3-2-------------3-2-------------3-2--|
E |--0-0-2-2-3-3-----0-0-2-2-3-3-----0-0-2-2-3-3-----0-0-2-2-3-3------|

  [PARTE B]
G |-----------------------------------|
D |-----------------------------------|
A |-----------------------------------|
E |--0-0-0-0-0-0-0-0-0-0-0-0-0-0-0-0--|

  [PARTE C]
G |-------------------|
D |-------------------|
A |-------------------|
E |--5-5-5-5-5-5-5-5--|


  [PARTE D]
G |-------------------|
D |-------------------|
A |-------------------|
E |--8-8-8-8-8-8-8-8--|

  [PARTE E]
G |---------------------------------------------------------------|
D |---------------------------------------------------------------|
A |--4b5-5-5-4b5-5-5-4b-5-5--5-5----------------------------------|
E |------------------------------5-5-5-5-8-8-8-8-5-5-5-5-8-8-8-8--|

  [PARTE F]
G |----------------------------------------------------------------------|
D |----------------------------------------------------------------------|
A |----------------3---------------------------------3-------------------|
E |--0--0-0--0-3-3----0--0-0--0-3-3-5--0--0-0--0-3-3----0--0-0--0-3-3-5--|


G B->PARTE A 
B->PARTE B
G B->PARTE A
B->PARTE B
G->MI B->PARTE B                G->MI B->PARTE B
Hay un tipo dentro del espejo que me mira con cara de conejo
G B->PARTE A
B->PARTE B
G ->MI B->PARTE B                G->MI B->PARTE B
Oye tu, tu que me miras es que quieres servirme de comida
G B->PARTE A
B->PARTE B
G->LA B->PARTE C  G->DO B->PARTE D  G->LA B->PARTE C  G->DO B->PARTE D           
Soy un macarra, soy un hortera, voy a toda hostia por la carretera
G->PARTE B  B->PARTE B
G->LA B->PARTE C  G->DO B->PARTE D  G->LA B->PARTE C  G->DO B->PARTE D
Soy un macarra, soy un hortera, voy a toda hostia por la carretera
4 VECES G->PARTE C  B->PARTE E  
G->MI*  B->PARTE B
G B->PARTE A
B->PARTE B
G B->PARTE A
B->PARTE B
G->MI B->PARTE B                G->MI B->PARTE B
Oye tu no te acerques demasiado, busco pelea y estas a mi lado
G B->PARTE A
B->PARTE B
G ->MI B->PARTE B                G->MI B->PARTE B
De un puñetazo me cargo el espejo le rompo los diente a cara de conejo
G B->PARTE A
B->PARTE B
G->LA B->PARTE C  G->DO B->PARTE D  G->LA B->PARTE C  G->DO B->PARTE D
Soy un macarra, soy un hortera, voy a toda hostia por la carretera
G->PARTE B  B->PARTE B
G->LA B->PARTE C  G->DO B->PARTE D  G->LA B->PARTE C  G->DO B->PARTE D
Soy un macarra, soy un hortera, voy a toda hostia por la carretera
B->PARTE F
G->UN PUNTEO EN MI CON DELAY  B->PATE B VARIAS VECES
G B->PARTE A
B->PARTE B
G B->PARTE A
B->PARTE B
G->MI B->PARTE B                G->MI B->PARTE B
Hay un tipo dentro del espajo que me mira con cara de conejo
G B->PARTE A


      PARA CUALQUIER DUDA O SUGERENCIA SOBRE EL TEMA O
   SOBRE LO QUE OS DE LA GANA ESTOY EN <mosquito@
Suggest correction
Give kudos to tab author, rate the tab!
1 2 3 4 5
comments
print report bad tab
guest
You may want to rate the tab now too:
select rating
Wanna post a correction for this tab? Suggest correction