Oops, an error
Loading. Please wait.

Suena En Los Clubs Un Blues Secreto Tab

55 views 1 this week
no commentswrite comment
1 2 3 4 5
3 more votes to show rating
add to favorites
launch autoscroll
font size
0
reset
how to read this tab
guitar tuner
Autoscroll
slow
fast
+/-
esc
set tempo
stop
Help us to improve Ultimate-Guitar.com Take our survey!
×
+ Tabulados de made in spain!                   +
+ [                        +
+++++++++++++++++++++++++++++++++++++++++++++++++

PARTE A1
e |----------------------3--5--|
B |----------------------3--5--|        ESTE ES EL RIFF PRINCIPAL
G |----------------------4--6--|        Y SIEMPRE VA ACOMPAÑADO 
D |----------------------5--7--|        CON EL BAJO HACIENDO LA 
A |----------------------5--7--|        MISMAS NOTAS
E |--0--0--5-6-5-6-0--0--3--5--|

PARTE A2
e |----------------------3--5--|         
B |----------------------5--7--|        
G |----------------------5--7--|
D |----------------------5--7--|
A |--0--0--5-6-5-6-0--0--3--5--|
E |----------------------------|

PARTE B
e |----------------------------|
B |----------------------------|         ESTO EN REALIDAD LO HACEN 
G |----------------------------|         CON UN SAXO, PERO SI LO   
D |-----9-7---9-7-5------------|         HACES CON LA GUITARRA 
A |--7------7-------7-5---5-7--|         TAMBIEN QUEDA BIEN
E |---------------------7------|         SE TOCA CON LA PARTE A1

PARTE C1                PARTE C2
e |-------------|       e |-------------|
B |-------------|       B |-------------|    ESTO ES EL PEQUEÑO 
G |--3-3<2<0----|       G |----3<2<0----|    PUNTEO QUE SE HACE 
D |----------2--|       D |--2-------2--|    DESPUES DE CADA 
A |-------------|       A |-------------|    VERSO
E |-------------|       E |-------------|

PARTE D1
e |-------------------------------------------|
B |-------------------------------------------|   ESTO EN REALIDAD ES LO      
G |-------------------------------------------|   QUE HACE EL BAJO
D |-------------------------------------------|   PERO SI LO TOCAIS SIN
A |----2-3-2---2-3-2---2-3-2---2-3-2---2-3-2--|   EL, HACERLO CON LA
E |--3-------3-------3-------3-------3--------|   GUITARRA 

PARTE D2
e |-------------------------------------------|   
B |-------------------------------------------|   ESTO SE HACE CON LA 
G |----4-5-4---4-5-4---4-5-4---4-5-4---4-5-4--|   GUITARRA Y SE TOCA
D |--5-------5-------5-------5-------5--------|   AL MISMO TIEMPO CON 
A |-------------------------------------------|   LA PARTE D1
E |-------------------------------------------|

PARTE E1                        PARTE E2  
e |-------------3--5--|         e |-----5--5-5--3--5--|
B |-----8--8-8--3--5--|         B |-----5--5-5--5--7--|   ESTO SOLO ESE HACE
G |-----7--7-7--4--6--|         G |-----6--6-6--5--7--|   EN LA PARTE DEL SOLO
D |-----6--6-6--5--7--|         D |-----7--7-7--5--7--|   DE ORGANO, Y SE TOCA 
A |--0--7--7-7--5--7--|         A |--0----------3--5--|   A LA VEZ CON LAS
E |-------------3--5--|         E |-------------------|   PARTE
Suggest correction
Give kudos to tab author, rate the tab!
1 2 3 4 5
comments
print report bad tab
guest
You may want to rate the tab now too:
select rating
Wanna post a correction for this tab? Suggest correction