Oops, an error
Loading. Please wait.

Tu Recuerdo Chords

version 1
version 1

Whole song

24 views 1 this week
no commentswrite comment
1 2 3 4 5
3 more votes to show rating
add to favorites
launch autoscroll
font size
0
reset
transpose
0
reset
display chords
guitar tuner
×
Best way to learn
"Tu Recuerdo"
Autoscroll
slow
fast
+/-
esc
set tempo
stop
Intro:
            C
Tu recuerdo vive aquí
C
Muy adentro muy en mi
             Am  C   Am  G  
Tu y mi alma lloran, lloran

              C
De no se como te perdí
C
Como te deje ir de aquí
           Am C  Am G
He quedado solo, solo

          C 
Y quien diría 
                           Am
Que por tu amor yo me perdería
                          Dm
Que por tu amor yo me moriría 
                     G 
triste solo y sin tu amor

          C
Y quien diría
                           Am
Que por tu amor yo me perdería
                            Dm
Que por tu amor enloquecería
                     G
Triste solo y sin tu amor

         C
Y te necesito amor
            Am
Vuelve a mi corazón
         Dm
Quítame este dolor
        G
Que no puedo soportar

       C
Te necesito hoy
           Am
Tu eres mi salvación
           Dm
Quítame el mal sabor
         G             C   Am
De esta triste soledad

Dm                  G
Amor ya no puedo mas
             (Rif1) 
Te necesito, te deseó


            C                
Tu recuerdo duele amor
C
Me consumo en el dolor
             Am  C   Am  G 
Tu y mi alma lloran, lloran

           C
No se como te perdí
C
Y como te deje ir de aquí
              Am C  Am G
Me he quedado solo, solo


          C
Y quien diría 
                           Am
Que por tu amor yo me perdería
                          Dm
Que por tu amor yo me moriría 
                     G 
triste solo y sin tu amor

          C 
Y quien diría
                            Am 
Que por tu amor yo enloquecería
                          Dm
Que por tu amor yo me moriría
                     G
Triste solo y sin tu amor

(C,Am,Dm,G)

(Rif2)
No, no

Te necesito amor
Vuelve a mi corazón
Quítame este dolor 
Que no puedo soportar

       C
Te necesito hoy
           Am
Tu eres mi salvación
           Dm
Quítame el mal sabor
         G                
De esta triste soledad

       C      Am
Te necesito amor
            (Am)
(Vuelve a mi corazón)
          Dm     G
Y sálvame del dolor
          (G)
(Quítame este dolor)


            C
Tu recuerdo vive en mi 
C
No se como te perdí
            Am 
Tu recuerdo duele
C
Humm......
 


Intro
E:------------10---------------8-7-8-----8-7-8--------------------8-7-
B:-5-6-8p10-8-----------10---8-------6-6-------6-5---5-8-6-5----------
G:---------------7-9-10----9-----------------------5--------7-5-7-----
D:--------------------------------------------------------------------
A:--------------------------------------------------------------------
E:--------------------------------------------------------------------


Rif1
E:-----------------------------8-8-8-7-7-7-5-5-5-3-3-3-1-1--1-12-12-10p8p10-
B:---------5-6-5-5p6-8-----8------------------------------------------------
G:-4-5-5-7-------------6p7---5----------------------------------------------
D:--------------------------------------------------------------------------
A:--------------------------------------------------------------------------
E:--------------------------------------------------------------------------


Rif2
E:-----------5-5------5-6--5-5-5-7-8-8--------11p13-11-11-11p13-11-11-
B:-5-6-5---5------5p6------------------6-6--6-------------------------
G:-------7------------------------------------------------------------
D:--------------------------------------------------------------------
A:--------------------------------------------------------------------
E:--------------------------------------------------------------------

E:-9-9-9-8-9p11-9---
B:------------------ 
G:------------------
D:------------------
A:------------------
E:------------------ 

===========================================================
Esta cancion va dedicada a una Gran Amiga, a mi mejor
amiga Patty que a pesar del tiempo 'tu recuerdo'
siempre estubo prensete en mi nunca te olvide y nunca
te olvidare amigos para toda la vida.

MIGUEL
Suggest correction
Give kudos to tab author, rate the tab!
1 2 3 4 5
comments
print report bad tab
guest
You may want to rate the tab now too:
select rating
Wanna post a correction for this tab? Suggest correction