Oops, an error
Loading. Please wait.

Tu Recuerdo Tab

version 1
version 1

Whole song

31 views 1 this week
no commentswrite comment
1 2 3 4 5
3 more votes to show rating
add to favorites
launch autoscroll
font size
0
reset
how to read this tab
guitar tuner
×
Best way to learn
"Tu Recuerdo"
Autoscroll
slow
fast
+/-
esc
set tempo
stop
Intro:  C - G - Am - Em - F - C - Dm - G 
e|---------8---8/10.--------------------------------------------------
B|---6-6/8---8----------7-9-10---------13-12-13--------13-12-13-------
G|-9-----------------10--------9-9/12-----------10-10-----------10-9--
D|--------------------------------------------------------------------
A|--------------------------------------------------------------------
E|--------------------------------------------------------------------

e|---------------------------------|
B|---------------------------13-12-|
G|----9-12-10-9--------------14-12-|
D|-10-----------12-10-10/12--------|
A|---------------------------------|
E|---------------------------------|

             C                     Am                    F - G  F - G
Tu recuerdo vive aquí muy adentro muy en mi en mi alma llora, llora
       C                        Am                          F - G  F - G
no se cómo te perdí, cómo te dejé ir de aquí me he quedado sólo, sólo.

Coro
           C                              Am
Y quién diría que por tu amor yo me perdería
                            F              Dm            G
que por tu amor yo me moriría, triste sólo y sin tu amor 
           C                                   Am
Y quién diría que por tu amor yo me perdería
                              F            Dm            G
que por tu amor me enloquecería, triste sólo y sin tu amor.

       C                     Am
Te necesito amor, vuelve a mi corazón
         F    Dm            G
quítame este dolor que no puedo soportar
         C                   Am
te necesito hoy, tú eres mi salvación 
              F          Dm             G             C - Am - F - G
quítame el mal sabor de esta triste soledad, aaah..

Solo: C - Am - F - G
e|-----------------------------------8-8-8-7-7-7--------------------
B|-------------------------8---8-----------------10-10-10-8-8-8-----
G|-----------7-9-10-9.-8/9---7----------------------------------10--
D|----7-9-10---------------------10---------------------------------
A|-10---------------------------------------------------------------
E|------------------------------------------------------------------

e|----12-12.-10-8-10.-|
B|--------------------|
G|-10-----------------|
D|--------------------|
A|--------------------|
E|--------------------|

              C                       Am                   F - G  F - G
Tu recuerdo duele amor, me consumo en el dolor y mi alma llora, llora
            C                   Am                            F - G  F - G
no se como te perdí, cómo te dejé ir de aquí, me he quedado sólo, sólo.

Coro
           C                              Am
Y quién diría que por tu amor yo me perdería
                         F               Dm           G
que por tu amor yo me moriría, triste sólo y sin tu amor 
           C                           Am
Y quién diría que por tu amor yo enloquecería
                        F            Dm            G       G#
que por tu amor yo me moriría, triste sólo y sin tu amor ooh, ooh...

C# - A#m - F# - D#m 
e|------------------------------------------8-9-9---------
B|-------6-----6-9-9.------9-9/11--11-11-11---------------
G|-----6---8-6--------8-10------------------------11-11.--
D|-6-8----------------------------------------------------
A|--------------------------------------------------------
E|--------------------------------------------------------

e|----11/13-11-11.----11/13-11-11.----11.-9-9-9-8-9/11-9.-|
B|---------------------------------13---------------------|
G|-11--------------11-------------------------------------|
D|--------------------------------------------------------|
A|--------------------------------------------------------|
E|--------------------------------------------------------|

        C#                   A#m
Te necesito amor vuelve a mi corazón
           F#               G#
quítame este dolor que no puedo soportar

        C#                   A#m               
Te necesito hoy tu eres mi salvación 
           F#                  G#
quítame el mal sabor de esta triste soledad.

        C#                   A#m
Te necesito amor vuelve a mi corazón
           F#               G#
quítame este dolor que no puedo soportar

            C#                    A#m
Tu recuerdo vive en mi no se cómo te perdí 
             F#     G#      C#
tu recuerdo duele, uuuh...


 ·=========================·
 |   ;)  ¤«L·u·K·?  :)   |
 | luis_reque@  |
 ·=========================·
Suggest correction
Give kudos to tab author, rate the tab!
1 2 3 4 5
comments
print report bad tab
guest
You may want to rate the tab now too:
select rating
Wanna post a correction for this tab? Suggest correction