Oops, an error
Loading. Please wait.

Tu Recuerdo Tab

version 2
version 2

Whole song

11 views 1 this week
no commentswrite comment
1 2 3 4 5
3 more votes to show rating
add to favorites
launch autoscroll
font size
0
reset
how to read this tab
guitar tuner
Autoscroll
slow
fast
+/-
esc
set tempo
stop
Help us to improve Ultimate-Guitar.com Take our survey!
×
Intro:  C - Am - F - Dm - F Gsus4 G   

E------9---9/10-------6------9/8-9-----9/8-9---------------------9-8||
B6/7-9---9----------6---6-9--------7-7-------7-6-----6-7-6----------||
G---------------6/8-------------------------------6-8------8-6-8----||
D-------------------------------------------------------------------||
A-------------------------------------------------------------------||
E-------------------------------------------------------------------||
             C                    Am                   F   Dm  F   G
Tu recuerdo vive aqui muy adentro muy en mi en mi alma llora y llora
           C                  G-Am                          F  Dm   F   G
no se como te perdi como te deje ir de aqui me he quedado solo y lloro

           C                         G-Am
y quien diria que por tu amor yo me perderia
                          F          Dm            G
que por tu amor yo me moriria triste solo y sin tu amor
          C                          G-Am                             F
y quien diria que por tu amor yo me perderia que por tu amor me enloqueceria
  Dm                    Gsus4   G
triste solo y sin tu amor

  C
y te necesito amor
             Am              F     Dm          G
vuelve a mi corazon quitame este dolor que no puedo soportar
        C                   Am                   F    Dm
te necesito hoy tu eres mi salvacion quitame el mal sabor
         Gsus4      G
de esta triste soledad

C   Am   F                             G
ooooooooooh no oo.....  amor ya no puedo mas       te necesito

solo: C   Am   F   Gsus4   G

E---------------------------------
B------------6/7-7-----6---9------
G--------6/8-------6/8---8---6----
D--6/7-9--------------------------
A---------------------------------
E---------------------------------

E-9-9-9--8-8-8--6-6-6-------------13-13--11/9-11------
B--------------------9-9-9-7----6---------------------
G-----------------------------------------------------
D-----------------------------------------------------
A-----------------------------------------------------
E-----------------------------------------------------
tu recuerdo duele amor me consumo en el dolor y mi alma llora llora
no se como te perdi como te deje ir de aqui me he quedado solo solo

quien diria que por tu amor tu me perderias que por tu amor yo me moriria
triste solo y sin tu amor
y quien diria que por tu amor yo enloqueceria que por tu amor yo me moriria
triste solo y sin tu amor

     G#7      C# A#m    F#   D#m   G#
Solo:oohnoo hee

E-------------------------6--6666--8/9-8-9-----
B----6-------9-9--6-7-9-6-----------------7-7-
G--8---8-6-8----------------------------------
D---------------------------------------------
A---------------------------------------------
E---------------------------------------------

E--11/13-11-11---11/13-11-11--
B-----------------------------
G-----------------------------
D-----------------------------
A-----------------------------
E-----------------------------
       C#                     A#m             F#   D#m         G#
te necesito amor vuelve a mi corazon quitame este dolor que no puedo soportar
       C#                     A#m                F#   D#m           G#
te necesito hoy tu eres mi salvacion quitame el mal sabor de esta triste soledad
        C#   A#m            F#    G#
te necesito amor y salvame del dolor
             C#                   A#m                F#    G#      C#
tu recuerdo vive en mi no se como te perdi tu recuerdo duele  huuu......
Suggest correction
Give kudos to tab author, rate the tab!
1 2 3 4 5
comments
print report bad tab
guest
You may want to rate the tab now too:
select rating
Wanna post a correction for this tab? Suggest correction