Oops, an error
Loading. Please wait.

M.j. Tab

24 views 1 this week
no commentswrite comment
1 2 3 4 5
3 more votes to show rating
add to favorites
launch autoscroll
font size
0
reset
how to read this tab
guitar tuner
×
Best way to learn
"M.J."
Autoscroll
slow
fast
+/-
esc
set tempo
stop
Intro:

1 guitarra     [x2]  PM  =  Palm Mute

e|-----------------------------------------------------
B|----------------------------------------------------- 
G|-----------------------------------------------------
D|--------------------------------5---5-------7---7--7-
A|--------5---5-------5---5--3-3-3-3-3-3-5-5-5-5-5---5-
E|-3-3-3-3-3-3-3-2-2-2-2-2-2---------------------------

2 guitarra

  G5  F$ C5 D5

e|---------------                
B|---------------
G|-------5--7----
D|-5--5--5--7----
A|-5--5--3--5----
E|-3--2----------  

G5            F# 
En los cuatro muros de éste triste cuarto
C5                D5 
Aspiro tu cuerpo, hay transformación
G5               F3
El olor en mi cara, entumece, 
C5               D5            
Al acto aparezco en otra habitación.

  C5 G5 A5 E5   C5 G5 A5
e|-----------------------
B|-----------------------
G|-5------------5-----7-- 
D|-5--5--7--2---5--5--7--
A|-3--5--7--2---3--5--7--
E|----3--5--0------3--5--

C5         G5                 A5          E5             
Me miro al espejo, y mis ojos son de otro color
C5        G5      A5
Mi sangre quiero renovar.
C5           G5            A5         E5   
No es que me quiera suicidar, pero es normal
C5            G5           A5
Por un pinche ideal que no llegará

Coro...

G5 F#    C5            D5
Alucino, que mi cuarto se tiñe en rojo.
G5     F#      C5          D5     
En tus labios, siento como pierdo la razón.
G5     F#     C5            D5
Mis sentidos, se entorpecen al oírte hablar.
G5     F#    C5           D5
En tus ojos, veo al mundo hacerse mierda.


Amanece y siento ganas de morir
Mi cuerpo no quiere reaccionar
Necesito estar contigo una vez más
Y hacerte mía nada más.
No trates de hacerme reaccionar
Quiero escapar
A donde nunca más pensar
Aunque sea un momento 
Quiero poder olvidar
Y cambiar mi triste realidad.
Coro
Quiero escapar, quiero olvidar
Quiero salir de la realidad.
Suggest correction
Give kudos to tab author, rate the tab!
1 2 3 4 5
comments
print report bad tab
guest
You may want to rate the tab now too:
select rating
Wanna post a correction for this tab? Suggest correction