Oops, an error
Loading. Please wait.

Me Duele La Cara De Ser Tan Guapo Tab

98 views 3 this week
no commentswrite comment
1 2 3 4 5
3 more votes to show rating
add to favorites
launch autoscroll
font size
0
reset
how to read this tab
guitar tuner
×
Best way to learn
"Me Duele La Cara De Ser Tan Guapo"
Autoscroll
slow
fast
+/-
esc
set tempo
stop
intro:
wachubidubibu,wachubidubidu,wachubidubidu waoa
wachubidubibu,wachubidubidu,wachubidubidu waoa
C             Am            F             G
wachubidubibu,wachubidubidu,wachubidubidu waoa
C             Am            F             G
wachubidubibu,wachubidubidu,wachubidubidu waoa
riff:
   C     Am     F     G      C      Am     F     G
e--------------------------|------------------------|
B------1-------------------|------1-----------------|
G--0-2---2/4-2-0-2-0-------|--0-2---2/4-2-0-2-0-----|
D--------------------2---0-|--------------------2-0-|
A----------------------3---|------------------------|
E--------------------------|------------------------|
   C        Am    F             G
Me duele la cara,  de ser tan guapo.
   C        Am    F             G
Me duele la cara,  de ser tan guapo.
   C        Am    F             G
Me duele la cara,  de ser tan guapo.
   C        Am    F             G
Me duele la cara,  de ser tan guapo.
      C        Am         F             G
Mi sonrisa profident,mi careto de john wane.
   C          Am          F           G
Mi prominente menton y mi martillo pilon.
     C        Am        F                 G
Esperfecto mi tupe,cortado en el corte ingles.
     C         Am        F        G
Al espejo me mire y me exite momollon.
C        F        G         G,F,F,C
Momollon,momollon,momollon.
C             Am            F             G
wachubidubibu,wachubidubidu,wachubidubidu waoa
C             Am            F             G
wachubidubibu,wachubidubidu,wachubidubidu waoa
   C        Am    F             G
Me duele la cara,  de ser tan guapo.
   C        Am    F             G
Me duele la cara,  de ser tan guapo.
   C        Am    F             G
Me duele la cara,  de ser tan guapo.
   C        Am    F             G
Me duele la cara,  de ser tan guapo.
     C             Am          F          G
Esta horrible sensacion,que me nubla la rason.
      C         Am       F            G
Es un extraño dolor,de difisil comprencion.
      C           Am       F           G
El destino que me dio,mi cara me lo conto.
    C           Am          F            G
Y feliz vida rompio,pues me duele el momollon.
C        F        G         G,F,F,C
Momollon,momollon,momollon.
C             Am            F             G
wachubidubibu,wachubidubidu,wachubidubidu waoa
C             Am            F             G    riff
wachubidubibu,wachubidubidu,wachubidubidu waoa
solo:
         C              Am            F        G
e-----------------------------------------------------|
B-------------------------------------6-5-------------|
G------5 7h5---5------5-7h5---5-----5-----7-5-4/5-7---|
D--5h7-------7----5h7-------7---5h7-----------------5-|
A-----------------------------------------------------|
E-----------------------------------------------------|
         C              Am            F       G
e-------------------------------------------------------|
B-------------------------------------6-5---------------|
G------5-7h5---5------5-7h5---5-----5-----7-5-7h9-5-5/7-|
D--5h7-------7----5h7-------7---5h7---------------------|
A-------------------------------------------------------|
E-------------------------------------------------------|
   C        Am    F             G
Me duele la cara,  de ser tan guapo.
   C        Am    F             G
Me duele la cara,  de ser tan guapo.
   C        Am    F             G
Me duele la cara,  de ser tan guapo.
   C        Am    F     G    C
Me duele la cara.........

Hola soy carlos y quiero dedicar esta cancion a mis compañeras
del coro por que se que les encanta oirme tocar esta cancion
y quiero que todos la conoscan.
Suggest correction
Give kudos to tab author, rate the tab!
1 2 3 4 5
comments
print report bad tab
guest
You may want to rate the tab now too:
select rating
Wanna post a correction for this tab? Suggest correction