Oops, an error
Loading. Please wait.

Amor Mortal Tab

44 views 6 this week
no commentswrite comment
1 2 3 4 5
3 more votes to show rating
add to favorites
launch autoscroll
font size
0
reset
how to read this tab
guitar tuner
×
Best way to learn
"Amor Mortal"
Autoscroll
slow
fast
+/-
esc
set tempo
stop
Esta es para el amor de mi vida lilinda qu aunque ya no este conmigo
la SEGUIRE AMANDO POR TODA LE ETERNIDAD

AMOR MORTAL - LOS INQUIETOS DEL NORTE

E|----------------------------------------------|
A|----------------------------------------------|
D|----------------------------------------------|
G|----------------------------------------------|
B|-10-9-10-9-10-9-9/10-10v---9-8-9-8-9-8-8/9-9v-|
e|-9--8-9--8-9--8-8/9---9v---9-7-8-7-8-7-7/8-8v-|

E|---------------------------------------------------|
A|---------------------------------------------------|
D|---------------------------------------------------|
G|-------------------10-9v--------10-10-9-9/10-10-10-|
B|-7/8-8-8-11-11-9-8--------8-8-8--------------------|
e|---------------------------------------------------|

v = vibrato
NOTA: La cancion es sensilla pueden tocarla con rasgueo de balada
      ABAJO-ARRIVA-ABAJO-ABAJO para cada acorde

   MI 7               LA M
Me haces tanta tanta falta
FA#m             SI m,  DO m, SI m, FA m,
Más de lo que te imaginas
         MI M.        LA M.
Y no concilio el sueño
                MI M.      MI 7
Mis noches son pesadillas
                 LA M.
Mejor quítame la vida
FA# m           SI m, DO  m, SI m, FA m,
Y disécame completo
         MI M.          LA M.
Ponme cerca de tu cama
                MI M.        MI 7
Para siempre estar contento
             LA M       FA#m
Porque este amor mortal
          DO # m       DO # 7
Se que me ba a matar
       FA#m         DO # m
Si no puedo lograr
Dejarte de amar

intro :La M, Fa # m, .....

B|-10-9-10-9-10-9-9/10-10v---9-8-9-8-9-8-8/9-9v-|
e|-9--8-9--8-9--8-8/9---9v---9-7-8-7-8-7-7/8-8v-|

G|-------------------10-9v--------10-10-9-9/10-10-10-|
B|-7/8-8-8-11-11-9-8--------8-8-8--------------------|
e|---------------------------------------------------|

                    LA M
Es tan cruel quererte tanto
FA#m             SI m,   DO  m, SI m, FA m,
Este amor me esta matado
         MI M.        LA M.
Ciento se me quema el alma
                MI M.      MI 7
Que me estoy carbonizando
                 LA M.
Deberías de verme ahora
FA#m             SI m,   DO  m, SI m, FA m
No me parezco al de antes
         MI M.          LA M.
El alcohol y tus recuerdos
                MI M.      MI 7
poco apoco están matándome
             LA M       FA#m
Porque este amor mortal
          DO # m     DO # 7
Sé que me va a matar
       FA#m      DO # m
Si no puedo lograr
           DO # 7     MI M.
Dejarte de amar

No es exactamente igual paro se escucha muy bien solo le tienen
que dar el tiempo correcto
Suggest correction
Give kudos to tab author, rate the tab!
1 2 3 4 5
comments
print report bad tab
guest
You may want to rate the tab now too:
select rating
Wanna post a correction for this tab? Suggest correction