Oops, an error
Loading. Please wait.

Nuestro Juramento tab

87 views 1 this week
no commentswrite comment
1 2 3 4 5
3 more votes to show rating
add to favorites
×
Save as Personal and add changes to this tab that will be seen only by you. Learn more ›
×
You can save this tab as Personal to edit and correct it or add notes. All changes will be seen only by you. Learn more »
launch autoscroll
font size
0
reset
how to read this tab
guitar tuner
edit
Autoscroll
slow
fast
+/-
esc
set tempo
stop
e|---5-8----11-10------------|----------------5-5-5--------|
B|--7-------------11---8--8--|----------7-7-7--------------|
G|-7-------------------------|----7-7-7--------------------|
D|---------------------------|-----------------------------|
A|---------------------------|-----------------------------|
E|---------------------------|-----------------------------|

e|-11-10------------|-11------------13------------|
B|-------11--8---8--|----13-13-13------13-13-13---|
G|------------------|-----------------------------|
D|------------------|-----------------------------|
A|------------------|------------(2 VECES)--------|
E|------------------|-----------------------------|


e|--10-----------11----------|-8------------8--------------|-8--
B|-----11-11-11-----11-11-11-|----10-10-10-----10-10-10----|-6--
G|---------------------------|-----------------------------|----
D|---------------------------|-----------------------------|----
A|---------(2 VECES)---------|-------------(2 VECES)-------|----
E|---------------------------|-----------------------------|----


Gm             Gm               Cm   Cm
No puedo verte triste porque me mata

Dm           Dm             Gm     Gm
tu carita de pena, mi dulce amor,

A#                F7               A#      A#
me duele tanto el llanto que tu derramas

Dm                 D#             D
que se llena de angustia mi corazon.


Gm               Gm                Cm    Cm
Yo sufro lo indecible si tu entristeces,

D                D                G   G7
no quiero que la duda te haga llorar,

G7              G7               Cm   Cm
hermos jurado amarnos hasta la muerte

Gm                Gm
y si los muertos aman,

           D               Gm
despues de muertos amarnos mas.


F               F              A#    A#
Si yo muero primero, es tu promesa,

F              F          A#
sobre de mi cadaver dejar caer

G7                 G7              Cm   Cm
todo el llanto que brote de tu tristeza

F              F                A#
y que todos se enteren de tu querer.


F                F             A#    A#
Si tu mueres primero, yo te prometo,

D                D                 G   G7
escribire la historia de nuestro amor

G7               G7            Cm      Cm
con toda el alma llena de sentimiento

Gm               Gm
la escribire con sangre,

          D                Gm
con tinta sangre del corazon.


e|---5-8----11-10------------|----------------5-5-5--------|
B|--7-------------11---8--8--|----------7-7-7--------------|
G|-7-------------------------|----7-7-7--------------------|
D|---------------------------|-----------------------------|
A|---------------------------|-----------------------------|
E|---------------------------|-----------------------------|

e|-11-10------------|-11------------13------------|
B|-------11--8---8--|----13-13-13------13-13-13---|
G|------------------|-----------------------------|
D|------------------|-----------------------------|
A|------------------|------------(2 VECES)--------|
E|------------------|-----------------------------|


e|--10-----------11----------|-8------------8--------------|-8--
B|-----11-11-11-----11-11-11-|----10-10-10-----10-10-10----|-6--
G|---------------------------|-----------------------------|----
D|---------------------------|-----------------------------|----
A|---------(2 VECES)---------|-------------(2 VECES)-------|----
E|---------------------------|-----------------------------|----

F               F              A#    A#
Si yo muero primero, es tu promesa,

F              F          A#
sobre de mi cadaver dejar caer

G7                 G7              Cm   Cm
todo el llanto que brote de tu tristeza

F              F                A#
y que todos se enteren de tu querer.


F                F             A#    A#
Si tu mueres primero, yo te prometo,

D                D                 G   G7
escribire la historia de nuestro amor


G7               G7            Cm      Cm
con toda el alma llena de sentimiento

Gm               Gm
la escribire con sangre,

          D                Gm
con tinta sangre del corazon


Muchas gracias esta es mi primera transcripcion espero que les guste

            
            
Suggest correction
Creating personal tab
Creating personal tab
You can edit any tab online and save it as your Personal.

You can edit, replace or remove any tab part or add personal notes – all changes will be seen only by you.

Personal tabs can be accessed anytime from any device, even offline.
Learn more »
Give kudos to tab author, rate the tab!
1 2 3 4 5
comments
print report bad tab
guest
Wanna post a correction for this tab? Suggest correction