Oops, an error
Loading. Please wait.

Te Lo Pido De Rodillas tab

312 views 1 this week
no commentswrite comment
1 2 3 4 5
3 more votes to show rating
add to favorites
×
Save as Personal and add changes to this tab that will be seen only by you. Learn more ›
×
You can save this tab as Personal to edit and correct it or add notes. All changes will be seen only by you. Learn more »
launch autoscroll
font size
0
reset
how to read this tab
guitar tuner
edit
Autoscroll
slow
fast
+/-
esc
set tempo
stop
ES MI PRIMERA COLABORACION A LA CUERDA AUNQUE LAS OTRAS
TRANSCRIPCIONES SON BUENAS ESPERO LES GUSTE ESTA TAN
BUENA CANCION


         D                            F#
E|-------2-------2--------------------2-------2-------
B|---------3---3---3---3----------------2---2---2---2-
G|-----------2-------2--------------------3-------3---
D|-------0--------------------------------------------
A|----------------------------------------------------
E|------------------------------------2---------------
  TE LLAMÉ,           PORQUE HACE UN AÑO

              Bm               Am         D7
E|------------2-------2--------0----------2-------
B|--------------3---3---3---3----1---1------1---1-
G|----------------4-------4--------2----------2---
D|----------------------------------------0-------
A|------------2----------------0------------------
E|------------------------------------------------
   QUE NO HABLAMOS

           G                    B
E|---------3-------3------------2-------2-------
B|-----------3---3---3---3--------4---4---4---4-
G|-------------4-------4------------4-------4---
D|----------------------------------------------
A|------------------------------2---------------
E|---------3------------------------------------
PARA ROMPER                AQUEL ADIÓS

           Em                   A7
E|---------0-------0------------0-------0-------
B|-----------0---0---0---0--------2---2---2---2-
G|-------------0-------0------------0-------0---
D|----------------------------------------------
A|------------------------------0---------------
E|---------0------------------------------------
  QUE NOS JURAMOS

--DE AQUI VA RASGADO--

CORO:

         D         F#
VOY A PEDIRTE DE RODILLAS
        Bm            Am D7
QUE REGRESES JUNTO A MI
G      F#     Bm
PORQUE SOY DE TI
        G         A7
Y TE QUIERO COMO ANTES
       D
MUCHO MAS


PUNTEO:
E|--------------------------------------
B|-3--2-3-5-3-2-3--2-3-5-3-2-3--3-0-----
G|----------------------------------0---
D|------------------------------------2-
A|--------------------------------------
E|--------------------------------------


ESTROFA 2:

         D                            F#
E|-------2-------2--------------------2-------2-------
B|---------3---3---3---3----------------2---2---2---2-
G|-----------2-------2--------------------3-------3---
D|-------0--------------------------------------------
A|----------------------------------------------------
E|------------------------------------2---------------
  TE LLAME              PORQUE TE QUIERO

              Bm               Am         D7
e|------------2-------2--------0----------2-------
B|--------------3---3---3---3----1---1------1---1-
G|----------------4-------4--------2----------2---
D|----------------------------------------0-------
A|------------2----------------0------------------
E|------------------------------------------------
   TODAVÍA


           G                    B
E|---------3-------3------------2-------2-------
B|-----------3---3---3---3--------4---4---4---4-
G|-------------4-------4------------4-------4---
D|----------------------------------------------
A|------------------------------2---------------
E|---------3------------------------------------
  PORQUE ESTE AMOR             ME ATORMENTA

           Em                   A7
E|---------0-------0------------0-------0-------
B|-----------0---0---0---0--------2---2---2---2-
G|-------------0-------0------------0-------0---
D|----------------------------------------------
A|------------------------------0---------------
E|---------0------------------------------------
         NOCHE Y DÍA

--RASGADO--

CORO:

         D         F#
VOY A PEDIRTE DE RODILLAS
        Bm            Am D7
QUE REGRESES JUNTO A MI
G      F#     Bm
PORQUE SOY DE TI
        G         A7
Y TE QUIERO COMO ANTES
       D
MUCHO MAS


PUNTEO:
E|--------------------------------------
B|-3--2-3-5-3-2-3--2-3-5-3-2-3--3-0-----
G|----------------------------------0---
D|------------------------------------2-
A|--------------------------------------
E|--------------------------------------

CORO:

         D         F#
VOY A PEDIRTE DE RODILLAS
        Bm            Am D7
QUE REGRESES JUNTO A MI
G      F#     Bm
PORQUE SOY DE TI
        G         A7
Y TE QUIERO COMO ANTES
       D
MUCHO MAS

E|-----------------------------------------
B|-3--2-3-5-3-2-3--2-3-5-3-2-3-2-3-3-0-----
G|-------------------------------------0---
D|---------------------------------------2-
A|-----------------------------------------
E|-----------------------------------------

            
            
Suggest correction
Creating personal tab
Creating personal tab
You can edit any tab online and save it as your Personal.

You can edit, replace or remove any tab part or add personal notes – all changes will be seen only by you.

Personal tabs can be accessed anytime from any device, even offline.
Learn more »
Give kudos to tab author, rate the tab!
1 2 3 4 5
comments
print report bad tab
guest
Wanna post a correction for this tab? Suggest correction