Oops, an error
Loading. Please wait.

Aconcagua Tab

106 views 1 this week
no commentswrite comment
1 2 3 4 5
3 more votes to show rating
add to favorites
launch autoscroll
font size
0
reset
how to read this tab
guitar tuner
×
Best way to learn
"Aconcagua"
Autoscroll
slow
fast
+/-
esc
set tempo
stop
e|-----------------------------------|
B|-----------------------------------|
G|-----------------------------------|
D|-----------------------------------|
A|-1-3-----------1-3-----------------|
E|-----0-5-0-3-0-----0-5-0-3-0-------|

e|-----------------------------------|
B|-----------------------------------|
G|-----------------------------------|
D|----------------------------------2|
A|-1-3-----------1-3-------------3---|
E|-----0-5-0-3-0-----0-5-0-3-0-----0-|

e|-----------------------------------|
B|-----------------------------------|
G|-----------------------------------|
D|-----------------------------------|
A|-1-3-----------1-3-----------------|
E|-----0-5-0-3-0-----0-5-0-3-0-------|

e|-----------------------------------|
B|-----------------------------------|
G|-----------------------------------|
D|----------------------------------2|
A|-1-3-----------1-3-------------3---|
E|-----0-5-0-3-0-----0-5-0-3-0-----0-|

e|-------------------------|
B|-------------------------|
G|-------------------------|
D|-------------------------|
A|-----3---------3---------|
E|-5-3---0---5-3---0-------|

e|-------------------------|
B|-------------------------|
G|-------------------------|
D|------------------------2|
A|-----3---------3----3----|
E|-5-3---0---5-3---0----0--|

e|-------------------------|
B|-------------------------|
G|-------------------------|
D|-------------------------|
A|-----3---------3---------|
E|-5-3---0---5-3---0-------|

e|-------------------------|
B|-------------------------|
G|-------------------------|
D|------------------------2|
A|-----3---------3----3----|
E|-5-3---0---5-3---0----0--|


Letra

1)Aconcagua yo te vi
al volver a mi pais
hoy por ti

2)Cordillera te soñe
al vivir de los años
lejos de ti

Desde un avion
monte aconcagua te vi
el condor blanco
vuela y viene hasta mi
desde un avion
monte aconcagua te vi

3)Amplios cielos contemple
verdes prados cuidan a
mi ciudad

4)Madre eterna
estrella luz
en tu pecho yo aprendi
a querer

Mi corazon hoy comprendo
tu sentir
la vida va,la vida esta
junto a mi
Suggest correction
Give kudos to tab author, rate the tab!
1 2 3 4 5
comments
print report bad tab
guest
You may want to rate the tab now too:
select rating
Wanna post a correction for this tab? Suggest correction