Oops, an error
Loading. Please wait.

Arrebol Chords

version 2
version 2

Whole song

6 views 1 this week
no commentswrite comment
1 2 3 4 5
3 more votes to show rating
add to favorites
launch autoscroll
font size
0
reset
transpose
0
reset
display chords
guitar tuner
×
Best way to learn
"Arrebol"
Autoscroll
slow
fast
+/-
esc
set tempo
stop
Intro: Am - Dm - Am - Em

Arpegio:
           Am                     Dm                      Am
E|----------------------|--------------1--------|------------------------|
B|--------------1-------|--------3--------3-----|--------------1---------|
G|--------2--------2----|-----2-----2--------2--|--------2--------2------|
D|-----2-----2--------2-|--0--------------------|-----2-----2--------2---|
A|--0-------------------|-----------------------|--0---------------------|
E|----------------------|-----------------------|------------------------|

           Em
---------------------------|
--------------0------------|
--------0--------0---------|  (Este arpegio se utiliza en toda la canción,
-----2-----2--------2------|   excepto en el final, ya que sólo hay piano
---------------------------|   & trutrucas)
--0------------------------|


   Am           Dm
A) Ya la luz del día
                     Am
no es más que un arrebol
                  Em
que sobre el horizonte quedó.
Am       Dm
Una brisa cálida vuela,
Am               Em
jugueteando a mi ventana llegó.
Am   Dm                 Am
Oye, cómo quisiera que la noche
             Em
trajera tu cariño hasta mí.

A) Ya la luz del día
no es más que un arrebol
que sobre el horizonte quedó.
Una brisa cálida llega
ondulando al amarillo trigal.
Oye, si en el perfume
que nos trae el crepúsculo
pudieras venir.

A) Inundando mis sentimientos
en presencia de tu querer.
Oye, y si la noche con su ensueño
en su nido nos quisiera arrullar.
Por las sombras viaja la mente
por rosadas sombras vuela tu amor
y me quedo aquí en mi ventana
solitario junto a mi inspiración.
Suggest correction
Give kudos to tab author, rate the tab!
1 2 3 4 5
comments
print report bad tab
guest
You may want to rate the tab now too:
select rating
Wanna post a correction for this tab? Suggest correction