Oops, an error
Loading. Please wait.

Lluvia De Estrellas Tab

14 views 1 this week
no commentswrite comment
1 2 3 4 5
3 more votes to show rating
add to favorites
launch autoscroll
font size
0
reset
how to read this tab
guitar tuner
×
Best way to learn
"Lluvia De Estrellas"
Autoscroll
slow
fast
+/-
esc
set tempo
stop
hola , envio un poko del solo de esta hermosa cancion...

1-----------------------------------
2-----------------------------------
3-----------------------------------
4--2//7----2//6----2//7--4----------
5---------------------------5(5)--7-
6-----------------------------------

1-----------------------------------
2-----------------------------------
3-------------------------9-8--9----
4--2//7----2//9----2//11------------
5-----------------------------------
6-----------------------------------

1--------------7-9-12-11---12-11-9--
2-----10-9-10-----------------------
3--9--------------------------------
4-----------------------------------
5-----------------------------------
6-----------------------------------

1-----------9------7-----12-11-9-11--12-9--
2--10----10---10-----9---------------------
3-----11---------------9-------------------
4------------------------------------------
5------------------------------------------
6------------------------------------------

1--11--16-11-7------(7)----------
2--------------9(9)-----10-9-7---
3------------------------------9-
4--------------------------------
5--------------------------------
6--------------------------------

1-------------------------------------
2-------------------------------------
3-8h9------7h8------------------------
4-----11-7-----10-6---------6--7-6-9--
5---------------------9-8-9-----------
6-------------------------------------

1-------------------------------------7--
2------------------7-----10--9-7-9-10----
3--------6---6-8-9---9-------------------
4--6-7-9---9-----------------------------
5----------------------------------------
6----------------------------------------

1-----9-7------------
2--10-----10-9-7-----
3----------------9---
4--------------------
5--------------------
6--------------------

bueno, espero ke les sirva de algo,
en realidad no esta 100%, le falta
la ultima parte (parte rapida)y no
esta 1oo% correcta pero en fin,
suena bonito....kualkier duda,
kritika y kualkier kosa a mi
mail k-vzon--arrobahotmailpuntocom
chao... ke esten bien....
Suggest correction
Give kudos to tab author, rate the tab!
1 2 3 4 5
comments
print report bad tab
guest
You may want to rate the tab now too:
select rating
Wanna post a correction for this tab? Suggest correction