Oops, an error
Loading. Please wait.

Mamalluca Tab

version 2
version 2

Whole song

42 views 3 this week
no commentswrite comment
1 2 3 4 5
3 more votes to show rating
add to favorites
launch autoscroll
font size
0
reset
how to read this tab
guitar tuner
×
Best way to learn
"Mamalluca"
Autoscroll
slow
fast
+/-
esc
set tempo
stop
Simbología:
 p = pull of
 h = hammer on
 / = slide

Solo de la guitarra:

E||--13/15----13----13-------13--------|-----------------13/15----13-15-|
B||--------------15-------15----15-13--|---------15---------------------|
G||------------------------------------|--15--12------------------------|
D||------------------------------------|--------------------------------|
A||------------------------------------|--------------------------------|
E||------------------------------------|--------------------------------|


|--18-15----13----13---------------------|
|--------------15----15-13-15-13---------|
|--------------------------------15-12---|
|----------------------------------------|
|----------------------------------------|
|----------------------------------------|


------------------------------------13----13-15-|
------------------13----13-15-13-15----15-------|
------12-15-12-15----15-------------------------|
---12-------------------------------------------|
------------------------------------------------|
------------------------------------------------|


|-13-15-17-15-17-17/18-18--17/18-18--17/18-18--|
|----------------------------------------------|
|----------------------------------------------|
|----------------------------------------------|
|----------------------------------------------|
|----------------------------------------------|


--17/18-18--17/18-18--17/18-18--18--15-13----|
------------------------------------------15-|
---------------------------------------------|
---------------------------------------------|
---------------------------------------------|
---------------------------------------------|


|--15----13h15p13----13-------------------------|
|-----------------15----15-13-13h15p13-13-------|
|-----------------------------------------15-14-|
|-----------------------------------------------|
|-----------------------------------------------|
|-----------------------------------------------|


|--------------------------------|-----------------------------|
|--------------------------------|------------/15--------15-13-|
|--12----------------------------|--/15------------------------|
|-----15--12---------------------|-----------------------------|
|------------15--13--12----------|-----------------------------|
|-----------------------15-------|-----------------------------|


|----------------------------|-----------------------------|
|---------14/15--------------|--/15----15-13---------------|
|--15--12------------/15-----|---------------15--12-15-----|
|----------------------------|-----------------------------|
|----------------------------|-----------------------------|
|----------------------------|-----------------------------|


|-----------------------------|----------------------------|
|------------/15--------15-13-|---------14/15--------------|
|--/15------------------------|--15--12------------/15-----|
|-----------------------------|----------------------------|
|-----------------------------|----------------------------|
|-----------------------------|----------------------------|


|----------------------------15/-|-----||
|--/15----15-13------------------|-----||
|---------------15--14-12--------|-----||
|--------------------------------|-----||
|--------------------------------|-----||
|--------------------------------|-----||

La verdad es que la canción original después del solo
la guitarra desaparece y no vuelve a sonar más hasta el
final de la canción, pero aquí les van unas notas que
quedán a la perfección como acompañamiento con la melodía:

 Gm   Cm      F        Gm
mamalluca, simiente reposado,
      Cm      F           Gm
mamalluca, mirando a lo profundo
D     Gm     Cm             D
mamalluca, traes los vientos cosmicos,
       Gm        Cm         D7
a refrescar, la amalgama inverosimil.
Gm   Cm         F           Gm
mamalluca, de los montes que cobijan,
     Cm       F           Gm
mamalluca, a los valles elquinos.

D               Gm
mamalluca, mamalluca,
D               Gm
mamalluca, mamalluca,
D    Gm             D
racimo, racimo celestial,
     Gm       D    Gm
mamalluca, mamalluca.
     D           Gm       D    Gm
mamalluca, noche eterna, mamalluca,
     D           Gm        D    Gm
mamalluca, dia incierto, mamalluca.

  Gm  Cm     F            Gm
mamalluca, de tanto sumergirte,
              Cm       F           Gm
en las vertiginosas cascadas de los cielos
D     Gm    Cm      D
desapareces gota a gota,
                 Gm
te haces transparente,
       Cm         D7
y eres montaña de viento.
Gm   Cm     F      Gm
mamalluca, materia ignota,
     Cm       F          Gm
mamalluca, espacio, puro nada.

     D          Gm
mamalluca, mamalluca
..............................


Solo final de la guitarra (03:16) :

E||--15/17----15----15-------15--------|---------16/17---|
B||--------------17-------17----17-15--|-----------------|
G||------------------------------------|--17--14---------|
D||------------------------------------|-----------------|
A||------------------------------------|-----------------|
E||------------------------------------|-----------------|


|-19/20-20--19/20-20--19/20-20--|--19/20-20--19/20-20--20--15/17----17-|
|-------------------------------|--------------------------------17----|
|-------------------------------|--------------------------------------|
|-------------------------------|--------------------------------------|
|-------------------------------|--------------------------------------|
|-------------------------------|--------------------------------------|


|-15h17p15----15-------------------------|
|----------17----17--15-15h17p15--17--15-|
|----------------------------------------|
|----------------------------------------|
|----------------------------------------|
|----------------------------------------|


|----------------------------------|
|----------------------------------|
|-17--16--14-----------------------|
|-------------14-------------------|
|-----------------17--15--14-------|
|-----------------------------17---|

FiN!!!

lA pRacticA haCe al MaEstro!

Dudas o preguntas a 
Suggest correction
Give kudos to tab author, rate the tab!
1 2 3 4 5
comments
print report bad tab
guest
You may want to rate the tab now too:
select rating
Wanna post a correction for this tab? Suggest correction