Oops, an error
Loading. Please wait.

Una Herida Mortal Tab

10 views 1 this week
no commentswrite comment
1 2 3 4 5
3 more votes to show rating
add to favorites
launch autoscroll
font size
0
reset
how to read this tab
guitar tuner
×
Best way to learn
"Una Herida Mortal"
Autoscroll
slow
fast
+/-
esc
set tempo
stop
Bueno aca la tienen entera con la intro y todos los cortes


Intro: base (La - MI - Do# - Re - Re - La - Mi)

E--------------------------------------------|
B--------------------------------------------|
G--------------------------------------------|
D---7-7-7-7-7-6-4-2--6-6-6-6-7-9-7-6-4-------|
A--------------------------------------------|
E--------------------------------------------|

E--------------------------------------------|
B--------------------------------------------|
G--------------------------------------------|
D-4-4-2-0------------------------------------|
A---------4-2-0-0-2-4/5-4-2------------------|
E----------------------------2-0-------------|

E--------------------------------------------|
B-10-10-10-10-10-9-7-5-7/9-9-9-10-12-10-9-7--|
G--------------------------------------------|
D--------------------------------------------|
A--------------------------------------------|
E--------------------------------------------|

E--------------------------------------------|
B-7-7-5-3-2-0--------------------------------|
G-------------2-2-4-6/7-6-4------------------|
D---------------------------4-4-2-4/7--------|
A--------------------------------------------|
E--------------------------------------------|


LA            MI
solo una vez pude jugar
FA#m                RE
con las cartas de ayer,
para saber cuanto gane
debo aprender a perder.

           RE          MI
cuanto me das? ke poco doy
           FA#m          RE
siempre buske la explicacion,
     RE
para ke nos buscamos
   LA              MI
si siempre decimos adios?

          LA             MI
como entender si alguna vez
       DO#                   RE
te compraste un pasaje al placer
      RE
y te fuiste volando hasta
LA                 MI
donde mis ojos no ven

como explicar si al final me dejaste
una herida mortal y te fuiste
volando hasta donde no puedo llegar

es ke al final cuando llegas
solo pienso en partir porke
entendi de una vez ke no
esto no es para mi.

ke poco das, cuanto te doy
no ves ke juntos no somos dos
para ke nos buscamos si siempre
decimos adios

como entender si alguna vez
te compraste una pasaje al placer
y te fuiste volando
hasta donde mis ojos no ven

como explicar si al final
me dejaste una herida mortal
y te fuiste volando hasta
donde no puedo llegar
ahahah

INTRO.

LA    MI        DO#                 RE
esta vez me dejaste una marca en la piel
      RE                    LA           MI
y te fuiste volando hasta donde mi ojos no ven
al final me dejaste una herida mortal
y te fuiste volando hasta donde no puedo llegar

esta vez me dejaste el dolor en la piel
y te fuiste volando hasta donde mi ojos no ven
al final me dejaste una herida mortal
y te fuiste volando hasta donde no puedo llegar
LLegar ahahaa

Final: LA - LA - MI/LA
Suggest correction
Give kudos to tab author, rate the tab!
1 2 3 4 5
comments
print report bad tab
guest
You may want to rate the tab now too:
select rating
Wanna post a correction for this tab? Suggest correction