Oops, an error
Loading. Please wait.

La Misma Mujer tab

28 views 1 this week
no commentswrite comment
1 2 3 4 5
3 more votes to show rating
add to favorites
×
Save as Personal and add changes to this tab that will be seen only by you. Learn more ›
×
You can save this tab as Personal to edit and correct it or add notes. All changes will be seen only by you. Learn more »
launch autoscroll
font size
0
reset
how to read this tab
guitar tuner
edit
Autoscroll
slow
fast
+/-
esc
set tempo
stop
para leticia y las mujeres de este hermoso pueblo
hai les va de daniel stevens rodrigues rivas
para la gente de colombia.


hay dile. dile que yo la quiero,dile que por ella me muero hay no,
no puedo,no puedo por que yo la quiero tambien desde el dia en que yo la
mire enamorado me que de hay,hay,hay, que vamos hacer que haremos con
esa mujer

e-----------1-0----
B-1-1-1-3-1-----3-1
G------------------
D------------------  bis
A------------------
E -----------------

e-3-3-3---1-1-1-1-1-0-0-0---1-0----
B-------3-----------------3-----3-3
G----------------------------------
D----------------------------------
A----------------------------------
E----------------------------------

e-----------0-1-0
B-1-1-1-3-1------
G----------------
D----------------  BIS
A----------------
E----------------

e-3-3-3---1-1-1-1-1-0-0-0---1-0----
B-------3-----------------3-----3-3
G----------------------------------
D----------------------------------
A----------------------------------
E----------------------------------

hay tu eres mi amigo y yo te quiero pero es que ella me
sigue el juego hay,hay,hay, y no se que hacer

hay tu eres mi hermano y te lodigo que ella tambien quiere
conmigo hay,hay,hay,hay,hay y no hallo que hacer


e-3-3-3-1-0-0-3-1-0-0-0-0-----0-0----------------------------
B-------------------------3-1-----3-1-1-1-0---0-1--3-1-0-1-3-
G-------------------------------------------2----------------
D------------------------------------------------------------
A------------------------------------------------------------
E------------------------------------------------------------


e-3-3-3-1-0-0-3-1-0-0-0-0-----0-0------------------------0---
B-------------------------3-1-----3-1-1-1-0---0-1--3-1-0---3
G-------------------------------------------2----------------
D------------------------------------------------------------
A------------------------------------------------------------
E------------------------------------------------------------


hay yo lopresenti por que vi en tu mirada que ta gustaba
pero lo ignore y ahora estoy confundido no se que pasa
yo te hare saber que cuando tu no estabas ella me llamaba
y me hizo creer que era solo tu amiga y yo le gustaba

e-0-0-0-0-0----------------------------0-0-0-0-3---------------------0--
B-----------3-0-0-1-1-1-1-1-3-3-3-3-1------------0-0-1-1-1-1-1-3-3-1---3
G-----------------------------------------------------------------------
D-----------------------------------------------------------------------
A-----------------------------------------------------------------------
E-----------------------------------------------------------------------


No puedo creer que esto este pasando
Nos enamoramos fue de la misma mujer!!!


e-------------------------3-2-2-0-3-2-2-0-3-2-3-5-7
B-0-0-0-0-0-1-0-0-0-0-0----------------------------
G-----------------------2--------------------------
D--------------------------------------------------
A--------------------------------------------------
E--------------------------------------------------

Ay dile, dile  que ya no juegue
Que si me quiere o no me quiere

e-0-0-0-0-0---1-0-----
B-----------3-----3-1-
G---------------------
D---------------------
A---------------------
E---------------------


Ay no, no, no, no te desesperes, recuerda lo que te conté
Ayer tarde yo la encontré Y en la boca yo la bese
Ay, ay, ya no se que hacer SI ella me juraba ser fiel!

e-3-3-3---1-1-1-1-1-0-0-0---1-0----
B-------3-----------------3-----3-3
G----------------------------------
D----------------------------------
A----------------------------------
E----------------------------------

e-----------0-1-0
B-1-1-1-3-1------
G----------------
D----------------  BIS
A----------------
E----------------

e-3-3-3---1-1-1-1-1-0-0-0---1-0----
B-------3-----------------3-----3-3
G----------------------------------
D----------------------------------
A----------------------------------
E----------------------------------


Yo sospeche que era mentira, lo que ella por los dos sentía
Ay, ay, ay, ay, ay, y la descubrí
Ay tienes razon, tu mi hermanito Vamos a seguirle el jueguito
Ay, ay, ay, ay, ay, déjala reír

e-3-3-3-1-0-0-3-1-0-0-0-0-----0-0----------------------------
B-------------------------3-1-----3-1-1-1-0---0-1--3-1-0-1-3-
G-------------------------------------------2----------------
D------------------------------------------------------------
A------------------------------------------------------------
E------------------------------------------------------------


e-3-3-3-1-0-0-3-1-0-0-0-0-----0-0------------------------0---
B-------------------------3-1-----3-1-1-1-0---0-1--3-1-0---3
G-------------------------------------------2----------------
D------------------------------------------------------------
A------------------------------------------------------------
E------------------------------------------------------------

Ella jurara, que la quiero y que no la cambio por nada
NO imaginara que si quiero quizás la dejo mañana
Yo le fingiré que sigo enamorado aunque no sea cierto
Y le enseñare, que si quiero en cualquier momento la dejo
e-0-0-0-0-0----------------------------0-0-0-0-3---------------------0--
B-----------3-0-0-1-1-1-1-1-3-3-3-3-1------------0-0-1-1-1-1-1-3-3-1---3
G-----------------------------------------------------------------------
D-----------------------------------------------------------------------
A-----------------------------------------------------------------------
E-----------------------------------------------------------------------

CORO
No puedo creer que esto este pasando
Nos enamoramos fue de la misma mujer!!!

e-------------------------3-2-2-0-3-2-2-0-3-2-3-5-7
B-0-0-0-0-0-1-0-0-0-0-0----------------------------
G-----------------------2--------------------------
D--------------------------------------------------
A--------------------------------------------------
E--------------------------------------------------

Ay! dile, dile que yo la quiero
Dile que por ella me muero
Ay no, no, no, no puedo, no puedo por que yo la quiero también
Desde el día en que yo la mire enamorado me quede
Ay, ay, ay que vamos a hacer que haremos con esa mujer

e-3-3-3---1-1-1-1-1-0-0-0---1-0----
B-------3-----------------3-----3-3
G----------------------------------
D----------------------------------
A----------------------------------
E----------------------------------

e-----------0-1-0
B-1-1-1-3-1------
G----------------
D----------------  BIS
A----------------
E----------------

e-3-3-3---1-1-1-1-1-0-0-0---1-0----
B-------3-----------------3-----3-3
G----------------------------------
D----------------------------------
A----------------------------------
E----------------------------------


PARA LAS MUJERES MAS INDAS DE ESTE PLANETA Y
POR SUPUESTO PARA LAS MAS TRAICIONERAS.

DESDE LETICIA, AMAZONAS, COLOMBIA POR
DANIEL STEVENS R5ODRIGUES RIVAS
POR FAVOR NO SE OLVIDEN CALIFICAR

            
            
Suggest correction
Creating personal tab
Creating personal tab
You can edit any tab online and save it as your Personal.

You can edit, replace or remove any tab part or add personal notes – all changes will be seen only by you.

Personal tabs can be accessed anytime from any device, even offline.
Learn more »
Give kudos to tab author, rate the tab!
1 2 3 4 5
comments
print report bad tab
guest
Wanna post a correction for this tab? Suggest correction