Oops, an error
Loading. Please wait.

La Bamba Tab

version 1
version 1

Whole song

95,479 views 201 this week
5 commentsread comments
1 2 3 4 5
accurate
x 19
add to favorites
launch autoscroll
font size
0
reset
how to read this tab
guitar tuner
Autoscroll
slow
fast
+/-
esc
set tempo
stop
Help us to improve Ultimate-Guitar.com Take our survey!
×
Author
La Bamba-los lobos

hey,i was seeking for the tab la bamba but there wasn't a good one, so i tabbed one 
it's a version that is based on the melodie of la bamba but it isn't the real version. it's fingerpicking.

Tuning: normaal E-A-D-G-B-e (low to high)
Chords: C-F-G

e|----------------------|-----------------------|-1-1-1-1—-1-0-|
B|----------------------|-----------------------|--------------|
G|-------------0---2-0--|--------------0---2-0--|--------------|
D|-----------2---3------|-----03320---2--3------|--------------|
A|----0-2-3-------------|--2--------3-----------|--------------|
E|-3--------------------|3----------------------|--------------|

e|------------------1-1-1-1--1-|-0-------------------1-0-----|
B|----1-------1----------------|---1--1-1--1--3-0--3-----3---|
G|----------2---2-0-------0----|-0------2-----0----0---------|
D|------2-3--------------------|--------3--------------------|
A|-3----------------------2----|-3-----------------2---------|
E|----------------3------------|-----------------------------|

e|-0----------------1-1-1-1-1-|-0-------------------1-0-----|
B|---1--------1---------------|----1-1-1-1-1-3----3-----3---|
G|-0--------2---2-0-----0-----|-0------2-------0--0---------|
D|------2-3-------------------|--------3--------------------|
A|-3--------------------2-----|-3-----------------2---------|
E|----------------3-----------|-----------------------------|


e|-0----------------1-1-1-1-1-|-0----------------------1---|
B|---1--------1---------------|---1--1-1—-1-3----0--3------|
G|-0--------2---2-0-----0-----|-0------2------0-----0------|
D|------2-3-------------------|--------3-------------------|
A|-3--------------------2-----|-3-------------------2------|
E|----------------3-----------|----------------------------|

e|-0--0-----------1-1-1-1-1-|-0---------------1-1-1-1-1----|
B|-------1------------------|---1-------1------------------|
G|-0--------2-0-------0-----|-0-------2---2-0-----0--------|
D|-------3------------------|-----2-3----------------------|
A|-3------------------2-----|-3----------------------------|
E|--------------3-----------|---------------3-----2--------|

e|-0-----------------------1-|-0--0-------------------------|
B|---1--1-1--1-3-----0--3----|-------1----------------------|
G|-0------2-------0-----0----|-0--------2-0-----------------|
D|--------3------------------|-------3----------0-3-3-2-0---|
A|-3--------------------3----|-3--------------2-------------|
E|---------------------------|--------------3---------------|

e|--------------------------------|-0------------------------------|
B|-1------------0-----------------|--------1-----3-3---------------|
G|------0-2-------0---------------|------0----2--0-----------------|
D|----2---3--3--------0-2-3-3-2-0-|----2---3-----------0-2-3-3-2-0-|
A|-3------------3---2-------------|-3----------------2-------------|
E|--------------------------------|--------------------------------|

e|-0---------------------------|----------------1-1-1-1--1-0---|
B|-------1-----3-3-------------|-------------------------------|
G|-----0----2--0---------------|------0----2-0-----------------|
D|---2---3---------------------|----2---3----------------------|
A|-3---------------0-2-3-3-2-0-|-3-----------------------------|
E|-----------------------------|-------------------------------|

e|------------------1-1-1-1--1-|-0-------------------1-0-------|
B|----1-------1----------------|---1--1-1--1--3-0--3-----3-----|
G|----------2---2-0-------0----|-0------2-----0----0-----------|
D|------2-3--------------------|--------3----------------------|
A|-3----------------------2----|-3-----------------2-----------|
E|----------------3------------|-------------------------------|

e|-0----------------1-1-1-1-1-|-0-------------------1-0-----|
B|---1--------1---------------|----1-1-1-1-1-3----3-----3---|
G|-0--------2---2-0-----0-----|-0------2-------0--0---------|
D|------2-3-------------------|--------3--------------------|
A|-3--------------------2-----|-3-----------------2---------|
E|----------------3-----------|-----------------------------|


e|-0----------------1-1-1-1-1-|-0----------------------1---|
B|---1--------1---------------|---1--1-1—-1-3----0--3------|
G|-0--------2---2-0-----0-----|-0------2------0-----0------|
D|------2-3-------------------|--------3-------------------|
A|-3--------------------2-----|-3-------------------2------|
E|----------------3-----------|----------------------------|

e|-0--0-----------1-1-1-1-1-|-0---------------1-1-1-1-1----|
B|-------1------------------|---1-------1------------------|
G|-0--------2-0-------0-----|-0-------2---2-0-----0--------|
D|-------3------------------|-----2-3----------------------|
A|-3------------------2-----|-3----------------------------|
E|--------------3-----------|---------------3-----2--------|

e|-0-----------------------1-|-0--0-------------------------|
B|---1--1-1--1-3-----0--3----|-------1----------------------|
G|-0------2-------0-----0----|-0--------2-0-----------------|
D|--------3------------------|-------3----------0-3-3-2-0---|
A|-3--------------------3----|-3--------------2-------------|
E|---------------------------|--------------3---------------|

e|--------------------------------|-0------------------------------|
B|-1------------0-----------------|--------1-----3-3---------------|
G|------0-2-------0---------------|------0----2--0-----------------|
D|----2---3--3--------0-2-3-3-2-0-|----2---3-----------0-2-3-3-2-0-|
A|-3------------3---2-------------|-3----------------2-------------|
E|--------------------------------|--------------------------------|

e|-0---------------------------|-0----------------------------|
B|-------1-----3-3-------------|--------1-----3-3-0-----------|
G|-----0----2--0---------------|------0----2--0-----0---------|
D|---2---3---------------------|----2---3-------------3-3-2-0-|
A|-3---------------0-2-3-3-2-0-|-3----------------------------|
E|-----------------------------|------------------------------|

e|-----------------0-|
B|-----1-----0-----1-|
G|---0-----0-------0-|
D|-------0-------0-2-|
A|-3---------------3-|
E|-------------3-----|

mail me or comment if there are bad things.
Suggest correction
What's this?
You can suggest a correction to this tab. Community and Mods will review your correction and vote to approve or reject it.
comments
print report bad tab
5 comments total. Showing first comments.
-1 reply
whoisthisagain 275 wrote on November 12 2008, 09:38 pm

For the intro, its missing a whole part.

0 reply
GuitaristWW2077 69 wrote on December 19 2008, 01:26 am

This is how I play the main riff of la bamba im 100% sure its right

---------------------------------------------|
---------------------------------------------|
-------------0---2-0----------------0---2-0--|
-----------2---3-----------03320---2--3------|
----0-2-3---------------2--------3-----------|
-3--------------------3----------------------|

-11111-0---11111-0------------1-0---0--------|
---------1---------1-1111-303-----3---1------|
---------------------------------------------|
---------------------------------------------|
---------------------------------------------|
---------------------------------------------|

---------------------------------------------|
1--0-----1---0---1---0-----1---0-------------|
-2---0-----2-------2---0-----2---------------|
---------------------------------------------|
---------------------------------------------|
---------------------------------------------|

then
-11111-0---11111-0------------1-0---0--------|
---------1---------1-1111-303-----3---1------|
---------------------------------------------|
---------------------------------------------|
---------------------------------------------|
---------------------------------------------|
time it how you want to.

0 reply
CapoedOut 70 wrote on February 9 2011, 08:55 pm

your missing a couple parts. Don't tell people that it isn't the right one though.

guest
You may want to rate the tab now too:
select rating
Please do not post tabs as comments. Select "correction" instead!