Oops, an error
Loading. Please wait.

Sabor A Mi tab

version 2
version 2

Whole song

427 views 3 this week
no commentswrite comment
1 2 3 4 5
3 more votes to show rating
add to favorites
×
Save as Personal and add changes to this tab that will be seen only by you. Learn more ›
×
You can save this tab as Personal to edit and correct it or add notes. All changes will be seen only by you. Learn more »
launch autoscroll
font size
0
reset
how to read this tab
guitar tuner
edit
Autoscroll
slow
fast
+/-
esc
set tempo
stop
Author
Difficulty
Los Lobos - Sabor A Mi
Tablatura por alainbravo


[Intro]

 Guitar 1
              0:05
e|--------------------------------------------------------------------------------|
B|----8-----------7-7-7----7---0------5-5-5---5---0-----5-5-5-----7-7-7----9-9-9--|
G|---7------------7-7-7----7---0------4-4-4---4---0-----6-6-6-----7-7-7----9-9-9--|
D|--8----------7--7-7-7--7-7-7-0---6--6-6-6---6---0--6--6-6-6--7--7-7-7--9-9-9-9--|
A|-9-----------x---------x---x-----7-----------------7---------x---------x--------|
E|-------------7---------7---7-----0--------6---6----5---------7---------9--------|

e|--------------------------------------------------------------------------------|
B|---8-8-8----7-7-7----7---0------5-5-5-----5---0-----5-5-5-----6-6-6--5----------|
G|---8-8-8----7-7-7----7---0------4-4-4-----4---0-----6-6-6-----7-7-7--6----------|
D|-8-8-8-8--7-7-7-7--7-7-7-0---6--6-6-6--6--6-6-0--6--6-6-6--7--7-7-7--6----------|
A|-x--------x--------x---x-----7---------7----7----7---------8---------7----------|
E|-8--------7--------7---7-----0---------0----0----5---------6---------5----------|


[1st Verse]

e|-9/12-12------------------------------------------------------------------------|
B|-8/11-11-----7-7-7----7---0------5-5-5---5---0-----5-5-5-----7-7-7----9-9-9-----|
G|-9/12-12-----7-7-7----7---0------4-4-4---4---0-----6-6-6-----7-7-7----9-9-9-----|
D|-8/11-11--7--7-7-7--7-7-7-0---6--6-6-6---6---0--6--6-6-6--7--7-7-7--9-9-9-9-----|
A|----------x---------x---x-----7-----------------7---------x---------x-----------|
E|----------7---------7---7-----0--------6---6----5---------7---------9-----------|

e|--------------------------------------------------------------------------------|
B|---8-8-8----7-7-7----7---0------5-5-5-----5---0-----5-5-5-----6-6-6--5----------|
G|---8-8-8----7-7-7----7---0------4-4-4-----4---0-----6-6-6-----7-7-7--6----------|
D|-8-8-8-8--7-7-7-7--7-7-7-0---6--6-6-6--6--6-6-0--6--6-6-6--7--7-7-7--6----------|
A|-x--------x--------x---x-----7---------7----7----7---------8---------7----------|
E|-8--------7--------7---7-----0---------0----0----5---------6---------5----------|


[2nd Verse]

e|-9/12-12------------------------------------------------------------------------|
B|-8/11-11-----7-7-7----7---0------5-5-5---5---0-----5-5-5-----7-7-7----9-9-9-----|
G|-9/12-12-----7-7-7----7---0------4-4-4---4---0-----6-6-6-----7-7-7----9-9-9-----|
D|-8/11-11--7--7-7-7--7-7-7-0---6--6-6-6---6---0--6--6-6-6--7--7-7-7--9-9-9-9-----|
A|----------x---------x---x-----7-----------------7---------x---------x-----------|
E|----------7---------7---7-----0--------6---6----5---------7---------9-----------|

e|--------------------------------------------------------------------------------|
B|---8-8-8----7-7-7----7---0------5-5-5-----5---0-----5-5-5-----6-6-6----5-5-5----|
G|---8-8-8----7-7-7----7---0------4-4-4-----4---0-----6-6-6-----7-7-7----6-6-6----|
D|-8-8-8-8--7-7-7-7--7-7-7-0---6--6-6-6--6--6-6-0--6--6-6-6--7--7-7-7--6-6-6-6----|
A|-x--------x--------x---x-----7---------7----7----7---------8---------7----------|
E|-8--------7--------7---7-----0---------0----0----5---------6---------5----------|


[Chorus]

e|------------7-7-7---7-7-7---7-7-7---7-7-7----2-2-2----2-2-2---2-2-2----2-2-2----|
B|---5---0----8-8-8---8-8-8---8-8-8---8-8-8----3-3-3----3-3-3---3-3-3----3-3-3----|
G|---6---0----7-7-7---7-7-7---7-7-7---7-7-7----2-2-2----2-2-2---2-2-2----2-2-2----|
D|-6-6-6-0------------------------------------------------------------------------|
A|-7---7----7-------6-------5-------4--------5-------4--------3--------2----------|
E|-5---5--------------------------------------------------------------------------|

e|----2-2-2---2-2-2---2-2-2---2-2-2--0-0-0--1-1-1--0------------------------------|
B|----2-2-2---2-2-2---2-2-2---2-2-2--0-0-0--1-1-1--0------------------------------|
G|----2-2-2---2-2-2---2-2-2---2-2-2--1-1-1--2-2-2--1------------------------------|
D|-4--------3-------2-------1--------0-0-0--1-1-1--0------------------------------|
A|-----------------------------------2-2-2--3-3-3--2------------------------------|
E|-----------------------------------0-0-0--1-1-1--0------------------------------|


[3rd Verse]

e|-9/12-12------------------------------------------------------------------------|
B|-8/11-11-----7-7-7----7---0------5-5-5---5---0-----5-5-5-----7-7-7----9-9-9-----|
G|-9/12-12-----7-7-7----7---0------4-4-4---4---0-----6-6-6-----7-7-7----9-9-9-----|
D|-8/11-11--7--7-7-7--7-7-7-0---6--6-6-6---6---0--6--6-6-6--7--7-7-7--9-9-9-9-----|
A|----------x---------x---x-----7-----------------7---------x---------x-----------|
E|----------7---------7---7-----0--------6---6----5---------7---------9-----------|

e|--------------------------------------------------------------------------------|
B|---8-8-8----7-7-7----7---0------5-5-5-----5---0-----5-5-5-----6-6-6--5----------|
G|---8-8-8----7-7-7----7---0------4-4-4-----4---0-----6-6-6-----7-7-7--6----------|
D|-8-8-8-8--7-7-7-7--7-7-7-0---6--6-6-6--6--6-6-0--6--6-6-6--7--7-7-7--6----------|
A|-x--------x--------x---x-----7---------7----7----7---------8---------7----------|
E|-8--------7--------7---7-----0---------0----0----5---------6---------5----------|


[Solo]
                                                                           x3
e|-9/12-12------------------------------------------------------------------------|
B|-8/11-11-----7-7-7----7---0------5-5-5---5---0-----5-5-5-----7-7-7----9-9-9-----|
G|-9/12-12-----7-7-7----7---0------4-4-4---4---0-----6-6-6-----7-7-7----9-9-9-----|
D|-8/11-11--7--7-7-7--7-7-7-0---6--6-6-6---6---0--6--6-6-6--7--7-7-7--9-9-9-9-----|
A|----------x---------x---x-----7-----------------7---------x---------x-----------|
E|----------7---------7---7-----0--------6---6----5---------7---------9-----------|

e|--------------------------------------------------------------------------------|
B|---8-8-8----7-7-7----7---0------5-5-5-----5---0-----5-5-5-----6-6-6--5----------|
G|---8-8-8----7-7-7----7---0------4-4-4-----4---0-----6-6-6-----7-7-7--6----------|
D|-8-8-8-8--7-7-7-7--7-7-7-0---6--6-6-6--6--6-6-0--6--6-6-6--7--7-7-7--6----------|
A|-x--------x--------x---x-----7---------7----7----7---------8---------7----------|
E|-8--------7--------7---7-----0---------0----0----5---------6---------5----------|


[Chorus]

e|------------7-7-7---7-7-7---7-7-7---7-7-7----2-2-2----2-2-2---2-2-2----2-2-2----|
B|---5---0----8-8-8---8-8-8---8-8-8---8-8-8----3-3-3----3-3-3---3-3-3----3-3-3----|
G|---6---0----7-7-7---7-7-7---7-7-7---7-7-7----2-2-2----2-2-2---2-2-2----2-2-2----|
D|-6-6-6-0------------------------------------------------------------------------|
A|-7---7----7-------6-------5-------4--------5-------4--------3--------2----------|
E|-5---5--------------------------------------------------------------------------|

e|----2-2-2---2-2-2---2-2-2---2-2-2--0-0-0--1-1-1--0------------------------------|
B|----2-2-2---2-2-2---2-2-2---2-2-2--0-0-0--1-1-1--0------------------------------|
G|----2-2-2---2-2-2---2-2-2---2-2-2--1-1-1--2-2-2--1------------------------------|
D|-4--------3-------2-------1--------0-0-0--1-1-1--0------------------------------|
A|-----------------------------------2-2-2--3-3-3--2------------------------------|
E|-----------------------------------0-0-0--1-1-1--0------------------------------|

e|-9/12-12------------------------------------------------------------------------|
B|-8/11-11-----7-7-7----7---0------5-5-5---5---0-----5-5-5-----7-7-7----9-9-9-----|
G|-9/12-12-----7-7-7----7---0------4-4-4---4---0-----6-6-6-----7-7-7----9-9-9-----|
D|-8/11-11--7--7-7-7--7-7-7-0---6--6-6-6---6---0--6--6-6-6--7--7-7-7--9-9-9-9-----|
A|----------x---------x---x-----7-----------------7---------x---------x-----------|
E|----------7---------7---7-----0--------6---6----5---------7---------9-----------|

e|--------------------------------------------------------------------------------|
B|---8-8-8----7-7-7----7---0------5-5-5-----5---0-----5-5-5-----5-5-5-------------|
G|---8-8-8----7-7-7----7---0------4-4-4-----4---0-----6-6-6-----6-6-6-------------|
D|-8-8-8-8--7-7-7-7--7-7-7-0---6--6-6-6--6--6-6-0--6--6-6-6--6--6-6-6-------------|
A|-x--------x--------x---x-----7---------7----7----7---------7--------------------|
E|-8--------7--------7---7-----0---------0----0----5---------5--------------------|


e|--------------------------------------------------------------------------------|
B|----6-6-6----6-6-6-----5-5-5-----5-5-5-----6-6-6-----6-6-6-----5-5-5-----5-5-5--|
G|----7-7-7----7-7-7-----6-6-6-----6-6-6-----7-7-7-----7-7-7-----6-6-6-----6-6-6--|
D|-7--7-7-7--7-7-7-7--6--6-6-6--6--6-6-6--7--7-7-7--7--7-7-7--6--6-6-6--6--6-6-6--|
A|-8---------8--------7---------7---------8---------8---------7---------7---------|
E|-6---------6--------5---------5---------6---------6---------5---------5---------|

e|------------------------------------------------4-------------------------------|
B|----6-6-6-----6-6-6-----5-5-5-----5-5-5--5-----5--------------------------------|
G|----7-7-7-----7-7-7-----6-6-6-----6-6-6--6----6---------------------------------|
D|-7--7-7-7--7--7-7-7--6--6-6-6--6--6-6-6--6---7----------------------------------|
A|-8---------8---------7---------7---------7--0-----------------------------------|
E|-6---------6---------5---------5---------5--------------------------------------|


Guitar 2
e|---------9-10-12-10-9h10p9----9-----9----9---7-9-10-7-9-10-9-7h9p7----7---------|
B|-------10------------------12--------------------------------------10-----------|
G|-----11-------------------------11=---11--------------------------------9=------|
D|--------------------------------------------------------------------------------|
A|--------------------------------------------------------------------------------|
E|--------------------------------------------------------------------------------|

e|---------------------------------------------------------------7-9-10-9-10-10/12|
B|---/12-12-12---9-10-12-10-12-10-9h10p9\7-9-9-9/10---10--7-9-10------------------|
G|-9------------------------------------------------------------------------------|
D|--------------------------------------------------------------------------------|
A|--------------------------------------------------------------------------------|
E|--------------------------------------------------------------------------------|

e|-----9-12-10-12-10-9h10p9----10---------------------12-7/9----------------------|
B|---10---------------------12----12-10-9----------10--------10-------------------|
G|-11-------------------------------------11-9--11--------------9-7-6-------------|
D|--------------------------------------------------------------------------------|
A|--------------------------------------------------------------------------------|
E|--------------------------------------------------------------------------------|

(0:52)

e|-12=--14=--16=--15=--14---------------------------------------------------------|
B|-14=--15=--17=--16=--15---------------------------------------------------------|
G|--------------------------------------------------------------------------------|
D|--------------------------------------------------------------------------------|
A|--------------------------------------------------------------------------------|
E|--------------------------------------------------------------------------------|


[Solo]

(1:46)

e|--------------------------------------------9-10--12--12-12-12-12-12--10-9------|
B|----------------------------7-9-10--9-10-12---------------------------------10--|
G|-------------4-6-7--4-6-7/9-----------------------------------------------------|
D|-------4-6-7--------------------------------------------------------------------|
A|---5-7--------------------------------------------------------------------------|
E|-7------------------------------------------------------------------------------|

e|---------------12-10-9----------------------10-9--------------------------------|
B|---------9-10----------12-10-9---------9-12------12-10-9--------------------5---|
G|-11-9-11-----------------------11-9-10-------------------11-9-7\6----4-6-7-----7|
D|-------------------------------------------------------------------7------------|
A|--------------------------------------------------------------------------------|
E|--------------------------------------------------------------------------------|

e|------------5---------------------5-7--9--10--12---10-9----9--------------------|
B|------------------------------5-7-----------------------12---10--12--10-9h10p9--|
G|-4--2-4---7---7-5h6---4--5/6----------------------------------------------------|
D|--------------------7-----------------------------------------------------------|
A|--------------------------------------------------------------------------------|
E|--------------------------------------------------------------------------------|

e|------------------------------------------2-4-5-7-9-10-7/9----------------------|
B|-----9-10-10/12-12------------------2-3-5------------------10---10-------12-----|
G|-11--------------------2p1---1--2/4---------------------------11------11--------|
D|---------------------------4----------------------------------------------------|
A|--------------------------------------------------------------------------------|
E|--------------------------------------------------------------------------------|

e|-7/9-------------------------------6/7--------------------------------9-10-12/14|
B|-----10----8/9-7--------------7--9-----10-------------9-10----9-10-12-----------|
G|--------11-------9------6-7-9-------------9h11-9---9-------11-------------------|
D|--------------------7-9---------------------------------------------------------|
A|--------------------------------------------------------------------------------|
E|--------------------------------------------------------------------------------|

e|-12-10p9-10----9-------9-10-12-14---14-17-------14-17-15h16------------14-------|
B|------------12---11-12------------------------15------------17-17---14----15-12-|
G|--------------------------------------------16----------------------------------|
D|--------------------------------------------------------------------------------|
A|--------------------------------------------------------------------------------|
E|--------------------------------------------------------------------------------|

e|------------------12/13-12-10-9-------------------------------------------------|
B|----15p12--------------------------------------------------7-9-10/12-12---------|
G|-14-------14\13--------------------------------------6-7-9----------------------|
D|---------------------------------6h7p6---6-----6-7-9----------------------------|
A|---------------------------------------9---7-9----------------------------------|
E|--------------------------------------------------------------------------------|

e|-------------------------------------------------7-9-10--9-7-----9-7-------7----|
B|-7h9p7---7-------7-9/10-9---7h9p7-7-------7-9h10-------------10------10--9---10-|
G|-------9---9-7-9--------------------9-8-9---------------------------------------|
D|--------------------------------------------------------------------------------|
A|--------------------------------------------------------------------------------|
E|--------------------------------------------------------------------------------|

e|----------------------------------7-9--10-12-10--12-14-12-10-9-12--10-9-7-------|
B|-9-7-9---------------------7-9h10-----------------------------------------------|
G|--------9-9---7h9p7--6-7-9------------------------------------------------------|
D|--------------------------------------------------------------------------------|
A|--------------------------------------------------------------------------------|
E|--------------------------------------------------------------------------------|

e|-10-9-7-------------------------------------------------------------------------|
B|----------10h12p10\9-9-10----9---7----------------------------------------------|
G|--------------------------11---9---9-7-9--6-7--4-6--2-4--1-2----1------2-0------|
D|--------------------------------------------------------------4---4-2-----------|
A|--------------------------------------------------------------------------------|
E|--------------------------------------------------------------------------------|


***********************************
| /   Slide up
| \   Slide down
| h   Hammer-on
| p   Pull-off
| x   Dead note
**********************************

            
            
Suggest correction
Creating personal tab
Creating personal tab
You can edit any tab online and save it as your Personal.

You can edit, replace or remove any tab part or add personal notes – all changes will be seen only by you.

Personal tabs can be accessed anytime from any device, even offline.
Learn more »
Give kudos to tab author, rate the tab!
1 2 3 4 5
comments
print report bad tab
guest
You may want to rate the tab now too:
select rating
Wanna post a correction for this tab? Suggest correction