Oops, an error
Loading. Please wait.

Heaven Bass Tab

version 1
version 1

Whole song

Interactive

16,821 views 21 this week
no commentswrite comment
1 2 3 4 5
please rate
add to favorites
launch autoscroll
font size
0
reset
guitar tuner
Autoscroll
slow
fast
+/-
esc
set tempo
stop
Help us to improve Ultimate-Guitar.com Take our survey!
×
Author
Difficulty
novice
Gb--------|
Db--------|
Ab--------|
Eb-2/20\--|

Gb---------------------------------------|
Ab---------------------------------------|
Db------x-7--x-5--5-5-------x-2--3----3--|
Eb-3-------------------5------------x----|

Gb---------------------------------------|
Db---------------------------------------|
Ab------x-7--5--x-5-------2--x-3--x-3/5--|
Eb-3-----------------5-------------------|

1st Guitar Solo  (0:21)
Gb---------------------------------------|
Ab---------------------------------------|
Db------x-7--x-5--5-5-------x-2--3----3--|
Eb-3-------------------5------------x----|

Gb---------------------------------|
Db---------------------------------|
Ab------x-7--5--x-5----------------|
Eb-3-----------------5----x-2/--5--|

Verses (0:31, 1:23, 2:29)
Gb---------------------------------------|
Ab---------------------------------------|  X4
Db------x-7--x-5--5-5-------x-2--3----3--|
Eb-3-------------------5------------x----|

Bass Fill 1  (0:49, 1:10)
Gb-----------|
Db--------7--|
Ab-----------|
Eb-5----7----|

Bass Fill 2  (1:42)
Gb--------------|
Db--------------|
Ab--------3--5--|
Eb-5----7-------|

Bass Fill 3  (2:47)
Gb---------------------------|
Db----------------5--/9-9-7--|
Ab-------3--5--7-------------|
Eb-5--7----------------------|

Chorus  (0:52, 1:44, 2:50)
Gb---------------------------------------|
Ab---------------------------------------|  X4
Db------x-7--x-5--5-5-------x-2--3----3--|
Eb-3-------------------5------------x----|

2nd Guitar Solo  (1:13)

Bass comes in with this on 3rd measure
Gb-------------------------------------|
Db------------------5-5-7-----------9--|
Ab------x-7--x-7--x-------7-------7----|
Eb-3------------------------5~-8-------|

Gb-----------------------------|
Db------------------------5----|
Ab------x-2-0-3-0-5-x-5-7---7--|
Eb-5---------------------------|

3rd Guitar Solo  (1:55)
Gb---------------------------------------|
Db-5--5----------------------------------|
Ab-------x-7--x-5--x-5h7------2--3--x-3--|
Eb-----------------------5---------------|

Gb-----------------------------------------------|
Db------------------------------------------5----|
Ab------x-7--x-5--x-5h7------x-2-3--5-0-5-7---7--|
Eb-3--------------------3------------------------|

Gb---------------------------------------|
Db-5--5----------------------------------|
Ab-------x-7--x-5--x-5h7------2--3--x-3--|
Eb-----------------------5---------------|

Gb------------------------------------------------|
Db-------------------5-------------------------5--|
Ab------x-7--x-5--7-----------2--2--3--3--/7-7----|
Eb-3--------------------5--5----------------------|

Bridge  (2:16)
Gb---------------------------------------------------------------------------|
Db----------7--------------9~------------------------------------------------|
Ab-0----/7~------------7-9-----------7-8-8--8-7-7--7--5--5~-5-5-5------------|
Eb-------------6--7-----------7-7~-7-----------------------------------/15\--|

Outro  (3:05)
Gb-----------------------------------------------------------------------|
Db-5~----------5-5--------------------------------------x-5--------------|  X4
Ab-----7~-5--7----------------x-3--x-3/5------x-7--x-5-------------3--5--|
Eb------------------5----x-7-------------3-------------------5--7--------|
Suggest correction
Give kudos to tab author, rate the tab!
1 2 3 4 5
comments
print report bad tab
guest
You may want to rate the tab now too:
select rating
Please do not post tabs as comments. Select "correction" instead!