Oops, an error
Loading. Please wait.

Heaven Tab

version 2
version 2

Whole song

Interactive

Video

58,316 views 42 this week
no commentswrite comment
1 2 3 4 5
x 7
add to favorites
launch autoscroll
font size
0
reset
how to read this tab
guitar tuner
backing track
0:00
0:00
×
Best way to learn
"Heaven"
Autoscroll
slow
fast
+/-
esc
set tempo
stop
Author
Tuning
  follow
D# G# C# F# A# D#
Heaven
Words and Music by Los Lonely Boys

Transcribed by: Gabe
AIM: JMFan70
Email: SupraSlick15_14@Juno.com
Tuning: Down 1/2 step

[Intro]

D#|--7/10-10-10-10-10-10-10\8--8---12-12-12-12----10------|
A#|--8/12-12-12-12-12-12-12\10-10--13-13-13-13\12-12------|
F#|-------------------------------------------------------|
C#|-------------------------------------------------------|
G#|-------------------------------------------------------|
D#|-------------------------------------------------------|
     |___________________| I am unsure about the exact number of strums they use but you get the idea.

D#|-10-10-10\8--8--8--10-12-12-10-10-10-8--8--7-7-----------|
A#|-12-12-12\10-10-10-12-13-13-12-12-12-10-10-8-8-----------|
F#|---------------------------------------------------------|
C#|---------------------------------------------------------|
G#|---------------------------------------------------------|
D#|---------------------------------------------------------|
Repeat everything above twice for the intro, you much use up and down strums to play it 
make it sound good.

[Intro Solo]

D#|--------------------10b12r------------------7-8-7h8p7----7-----------------|
A#|--10b12r-8---8-8----x-----10b12r-8-8---8-10-----------10---10b12r-8-8------|
F#|--x--------9-----9--x----------------9-------------------------------------|
C#|--x------------------------------------------------------------------------|
G#|---------------------------------------------------------------------------|
D#|---------------------------------------------------------------------------|

D#|-----------------------|
A#|----10-----(8\)--------|
F#|--9----9-7-------------|
C#|-----------------------|
G#|-----------------------|
D#|-----------------------|

[Verses/Chorus]

D#|--3-3--(/)--5-5----|
A#|--3-3--(/)--5-5----|
F#|--4-4--(/)--5-5----|
C#|--5-5--(/)--7-7----|
G#|-------------------|
D#|-------------------|
        |_|--I believe there is a slide between each chord

[Second Solo]

D#|-(8)10-8-7-------------------------8-7-7-----|
A#|-----------8---------8-------8~----------8---|
F#|-------------7--4-5----4-5-4----/9-----------|
C#|---------------------------------------------|
G#|---------------------------------------------|
D#|---------------------------------------------|

after the (Lord can ya tell me...)

[Main Guitar Solo]

D#|-10--------------------------------7--8-------7-8-7-------|
A#|----10b12r-8---8-----8---8---10b12------10b12-------------|
F#|-------------9---------7----------------------------------|
C#|----------------------------------------------------------|
G#|----------------------------------------------------------|
D#|----------------------------------------------------------|

D#|----7-----------------10--------------x-12-8---7------------------------|
A#|-10---10b12-8---8--------8-8-8--8-x-x------------10b12r-10-8---8--------|
F#|--------------9----9-----------------------------------------9----------|
C#|------------------------------------------------------------------------|
G#|------------------------------------------------------------------------|
D#|------------------------------------------------------------------------|

D#|-----7--------10-0--------------------8-9-10------8-9-10-------8-9-10------|
A#|-10----8------------8-8--8----8-10b12--------10b12-------10b12-------------|
F#|---------9------------------9----------------------------------------------|
C#|---------------------------------------------------------------------------|
G#|---------------------------------------------------------------------------|
D#|---------------------------------------------------------------------------|

D#|--15-15\---8-7----7-7-7---|
A#|---------------10---------|
F#|--------------------------|
C#|--------------------------|
G#|--------------------------|
D#|--------------------------|

D#|--8-7---7------------------------------------------|
A#|------10-10-8-10-8--8------------------------------|
F#|-------------------9-9--7-9-7--7-------------------|
C#|------------------------------9-9-7-7-5---5-0------|
G#|----------------------------------------7----------|
D#|---------------------------------------------------|

This part is played very fast!

[Bridge]

D#|-5--5---6--7------0--2~----x----------------|
A#|-5--5---6--7--1---1--3~------x--------------|
F#|-5--5---6--7--2---0--2~--------x------------|
C#|-7--7---8--9--3---2--0~----------x----------|
G#|--------------3---3--0~------------x--------|
D#|--------------1----------------------20\\\\-|

Return to chorus


************************************

| x Muted String
| \ Slide Down
| / Slide Up
| h Hammer On
| p Pull Off
| b Bend
| r Release
| ~ Let Ring

************************************
Suggest correction
comments
print report bad tab
guest
You may want to rate the tab now too:
select rating
Wanna post a correction for this tab? Suggest correction