Oops, an error
Loading. Please wait.

Heaven Tab

version 3
version 3

Interactive

55,832 views 75 this week
2 commentsread comments
1 2 3 4 5
x 11
add to favorites
launch autoscroll
font size
0
reset
how to read this tab
guitar tuner
Autoscroll
slow
fast
+/-
esc
set tempo
stop
Help us to improve Ultimate-Guitar.com Take our survey!
×
"Heaven" by Los Lonely Boys
Tabbed by Roger Luna 5/17/04
email rluna@mckenna.org


Here's the way I play this song. I'm sure it's not 100% accurate
but it's close enough. I couldn't find this posted with the
leads anywhere so I decided to take a stab at it.

Enjoy!


 [Intro]
       **************** Repeat these four bars *********************
       sl                    sl                        sl           
e|6-6-|-/9--9--9--9--9--9--9-\--7-7-|-11-11-11-11-11-11\--9--9--9--|
B|7-7-|-/11----11-11-11-11-11\--9-9-|-12-12-12-12-12-12\--11-11-11-|
G|----|-----------------------------|------------------------------|
D|----|-----------------------------|------------------------------|
A|----|-----------------------------|------------------------------|
E|----|-----------------------------|------------------------------|

 ************************************************
                sl         Vamanos!
e|-9--9--9--9--9-\-7-7-7-|-9--11-11-11-9--7-6-6-|
B|-11-11-11-11-11\-9-9-9-|-11-12-12-12-11-9-7-7-|
G|-----------------------|----------------------|
D|-----------------------|----------------------|
A|-----------------------|----------------------|
E|-----------------------|----------------------|


 Fill
    b              b    b                    h p       b                      sl
e|--------------|-9^-9----------|-------6-8-6-8-6---6----------|----------------|
B|-9^-9-7---7---|------9^-9-7-7-|---7-9-----------9---9^-9-7---|-7-7---9-----7\-|
G|--------8---8-|---------------|-8--------------------------8-|-----8---8-8----|
D|--------------|---------------|------------------------------|----------------|
A|--------------|---------------|------------------------------|----------------|
E|--------------|---------------|------------------------------|----------------|

 Rhythm guitar during Fill
e|-2------------|-4-------------|-2----------------------------|-4--------------|
B|-2-----h------|-4-------------|-2---h------------------------|-4--------------|
G|-3---(3-4-4-3)|-4-------------|-3-(3-4-4-3)------------------|-4--------------|
D|-4------------|-6-------------|-4----------------------------|-6--------------|
A|--------------|-----6--9-9-6)-|------------------------------|----------------|
E|--------------|---(9----------|------------------------------|----------------|



 Sa-a-ave
 me from this prison       Lord help me get away
e|-2----------------------|-4----------------|-2-------------4------|
B|-2-----h----------------|-4----------------|-2---h---------4------|
G|-3---(3-4-4-3)----------|-4----------------|-3-(3-4-4-3)---4------|
D|-4----------------------|-6----------------|-4-------------6------|
A|------------------------|-----6--9-9-6)----|----------------------|
E|------------------------|---(9-------------|----------------------|


(Refer to the song for the timing, phrasing, and chord repetition
Also note the 2nd guitar part in parenthesis, which varies throughout
and repeats throughout the song)

 Cause o-o-o-nly
 you can save me now        from this misery
e|-2----------------------|-4---------------------|-2-------------4-|
B|-2-----h----------------|-4---------------------|-2----h--------4-|
G|-3---(3-4-4-3)----------|-4---------------------|-3--(3-4-4-3)--4-|
D|-4----------------------|-6---------------------|-4-------------6-|
A|------------------------|-----------------------|-----------------|
E|------------------------|-----------------------|-----------------|


 I-I-I've
 been lost in my own place  and I'm gettin' weary   how far is heaven?
e|-2----------------------|-4----------------------|-2-------------4--------------|
B|-2-----h----------------|-4----------------------|-2---h---------4--------------|
G|-3---(3-4-4-3)----------|-4----------------------|-3-(3-4-4-3)---4--------------|
D|-4----------------------|-6----------------------|-4-------------6--------------|
A|------------------------|-----(9-9-6--9-9-6)-----|--------------------6--9-9-6)-|
E|------------------------|------------------------|------------------(9----------|


 And I-I-I
 know that I need to change    my ways of livin'  how far is heaven?   Lord can you tell me?
e|-2-------------------------|-4-----------------|-2-------------4---|----------------------|
B|-2-----h-------------------|-4-----------------|-2---h---------4---|----------------------|
G|-3---(3-4-4-3)-------------|-4-----------------|-3-(3-4-4-3)---4---|----------------------|
D|-4-------------------------|-6-----------------|-4-------------6---|----------------------|
A|---------------------------|-------------------|-------------------|----------------------|
E|---------------------------|-------------------|-------------------|----------------------|


 Fill
                               sl
e|-9-7-6-----|---------------|-----7-6---|
B|-------7---|-----7-------7-|---------7-|
G|---------6-|-3-4---3-4-3---|-5/8-------|
D|-----------|---------------|-----------|
A|-----------|---------------|-----------|
E|-----------|---------------|-----------|


I've been locked up way too long in this crazy world
How far is heaven?
And I'll just keep on prayin' Lord, and just keep on livin'
How far is heaven?
Yeah, Lord can you tell me?
How far is heaven?
Cause I just got to know how far yeah
How far is heaven?
Yeah, Lord can you tell me?


 [Solo]
    b    b                 b        b           b                        sl       b 
e|-9^-9-------------|--------6-7-|----6-7-6--6--------|-----9---------|-9/11-7-6--------------6-----|
B|-------^9-9-7---7-|---7-9^-----|-9^----------9^-9-7-|-7-7---7-7-7-7-|----------9^-9-7---7-9---7---|
G|--------------8---|-8----------|--------------------|---------------|-----------------6---------6-|
D|------------------|------------|--------------------|---------------|-----------------------------|
A|------------------|------------|--------------------|---------------|-----------------------------|
E|------------------|------------|--------------------|---------------|-----------------------------|

                                                 sl                    p             p     p
e|-9---------|-6-7-8-9-|-6-7-8-9-|-6-7-8-9-|-14-14\-|-7-6-------6-6-|-7-6---6-----|-------------|
B|---7-7-7---|---------|---------|---------|--------|-----7-9-9-----|-----9---9-7-|-9-7-6-7-6---|
G|---------6-|---------|---------|---------|--------|---------------|-------------|-----------8-|
D|-----------|---------|---------|---------|--------|---------------|-------------|-------------|
A|-----------|---------|---------|---------|--------|---------------|-------------|-------------|
E|-----------|---------|---------|---------|--------|---------------|-------------|-------------|

                             sl   Tu que estas en alto cielo      Hechame tu bendicion   sl
e|-------------|-------------4\-|--------------4--5--6--6-----6-|---------------------|----|
B|-6------p----|-------------4\-|--------------4--5--6----6-----|-------4-----------6-|-x\-|
G|---8-6-8-6---|-6------p----4\-|--------------4--5--6------6---|-9-----4-----------6-|-x\-|
D|-----------8-|---8-6-8-6---6\-|--------------6--7--8----------|-6-----4-----------6-|-x\-|
A|-------------|-----------8-6\-|--------------6--7--8----------|-7-----6-----------4-|-x\-|
E|-------------|----------------|-------------------------------|---------------------|----|


Cause I know there's a better place than this place I'm livin'
How far is heaven?
And I just got to have some faith and just keep on givin'
How far is heaven?
Yeah Lord can you tell me?
How far is heaven?
Cause I just gotta know how far, yeah
How far is heaven?
Yeah, Lord can you tell me?
How far is heaven?

[Outro]

 Cause I just got to know how far
                          I just wanna know how far
  sl          sl                                     sl           sl       sl
e|-------------------------------------------------|------------|--------|--------6-7-6---|
B|----6---6-6-6\---6---6-4-4-4-4-6-8-6-6-4-3-------|--------7---|----7---|----7-9-------9-|
G|-/8---8---8-8\-----8---6-6-6-6-8-9-8-8-6-4-------|----6-8---8-|-/8---8-|-/8-------------|
D|-------------------------------------------------|-/8---------|--------|----------------|
A|-------------------------------------------------|------------|--------|----------------|
E|-------------------------------------------------|------------|--------|----------------|

  sl          sl                               sl                              sl
e|-------------------------------------------|----------|-----|---6-7---6-9-|-9/11-11-9-9-7-7-6---|
B|----6---6-6-6\---6---6-4-4-4-4-6-8-6-6-4-3-|--------7-|-9-7-|-9-----9-----|-------------------7-|
G|-/8---8---8-8\-----8---6-6-6-6-8-9-8-8-6-4-|----6-8---|-----|-------------|---------------------|
D|-------------------------------------------|-/8-------|-----|-------------|---------------------|
A|-------------------------------------------|----------|-----|-------------|---------------------|
E|-------------------------------------------|----------|-----|-------------|---------------------|

    b    b            b                               h p                        sl                 |
e|-9^-9-----------------6-7---|----------------|-6-7-6-7-6--6-7-9-7--6-7-9-7-|-------14----14----14-|
B|------9^-9-7---7-7-9^-----7-|---7-9^-9-7---7-|-----------------------------|-14/16----16----16----|
G|-------------8--------------|-8----------8---|-----------------------------|----------------------|
D|----------------------------|----------------|-----------------------------|----------------------|
A|----------------------------|----------------|-----------------------------|----------------------|
E|----------------------------|----------------|-----------------------------|----------------------|

  (song fades out...)
e|-16^-16^-16^-14----|
B|----------------16-|
G|-------------------|
D|-------------------|
A|-------------------|
E|-------------------|


************************************

sl=slide (up or down)
b=bend
h=hammer on
p=pull off

************************************
Suggest correction
comments
print report bad tab
2 comments total.
0 reply
borninamoshpit_ 10 Aug 12, 2004 12:00 AM

sick tab

0 reply
gocaps 10 Aug 22, 2004 12:00 AM

awesome

guest
You may want to rate the tab now too:
select rating
Wanna post a correction for this tab? Suggest correction