Oops, an error
Loading. Please wait.

Heaven Tab

version 4
version 4

Intro

Solo

Interactive

5,804 views 6 this week
no commentswrite comment
1 2 3 4 5
accurate
x 3
add to favorites
launch autoscroll
font size
0
reset
how to read this tab
guitar tuner
Tab Pro tools
  • play this tab
  • loop segment
  • change instrument
  • show fretboard
  • metronome
Autoscroll
slow
fast
+/-
esc
set tempo
stop
Artist: Los Lonely Boys
Song:  Heaven
Transcription by: George Gomez
Tuning: EADGBE

Intro
|--------------------------------------------------------------|
|-o-11-11---11/14-14-14-14-14-14/12-12---16-16-16-16-16-16/14--|
|---11-11---11/15-15-15-15-15-15/13-13---16-16-16-16-16-16/15--|
|--------------------------------------------------------------|
|-o------------------------------------------------------------|
|--------------------------------------------------------------|

|-----------------------------------------------------------|
|--14-14-14-14-14-14/12-12-12-14-16-16-14-12-11-11--11-11-o-|
|--15-15-15-15-15-15/13-13-13-15-16-16-15-13-11-11--11-11---|
|-----------------------------------------------------------|
|---------------------------------------------------------o-|
|-----------------------------------------------------------|

solo 1
|----------------------9(11)-9-------------------6-6h7p6-|
|--9(11)-9-7---7-7-7-----------9-9-7-7---7---7-9---------|
|------------8-------8-----------------8---8-------------|
|--------------------------------------------------------|
|--------------------------------------------------------|
|--------------------------------------------------------|

|----6-----------------------|
|--9---9(11)9---7---9-7------|
|-------------8---8-----8-6--|
|----------------------------|
|----------------------------|
|----------------------------|

                                        4x
|---------------------------------------------|
|-o-----------------------------------------o-|
|---6--6-6-X-6-6-6-6-6---8--8-8-X-8-8-8-8-8---|
|---4--4-4-X-4-4-4-4-4---9--9-9-X-9-9-9-9-9---|
|-o-----------------------------------------o-|
|---------------------------------------------|

solo 2
|--9-7-6-----------2-------2~~-----7-6----|
|--------7-----------------------------7--|
|----------6~~-3-4---3-4-3-----4/6--------|
|-----------------------------------------|
|-----------------------------------------|
|-----------------------------------------|

                                        6x
|---------------------------------------------|
|-o-----------------------------------------o-|
|---6--6-6-X-6-6-6-6-6---8--8-8-X-8-8-8-8-8---|
|---4--4-4-X-4-4-4-4-4---9--9-9-X-9-9-9-9-9---|
|-o-----------------------------------------o-|
|---------------------------------------------|

solo 3
|--9(11)-9--------------------------6-7-------6-7-6---6---------|
|----------9(11)9p7---7-----7-9(11)-----9(11)-------9---9(11)-7-|
|-------------------8-----8-------------------------------------|
|---------------------------------------------------------------|
|---------------------------------------------------------------|
|---------------------------------------------------------------|

|------9-------9/11-7-6---------------6-----9------|
|----7---9-7-7----------9(11)-9---7-9---7----9-7-7-|
|--8----------------------------8---------8--------|
|--------------------------------------------------|
|--------------------------------------------------|
|--------------------------------------------------|

|-----------6-7-9-------6-7-9-------6-7-9-14-14/--|
|---7-9(11)-------9(11)-------9(11)---------------|
|-8-----------------------------------------------|
|-------------------------------------------------|
|-------------------------------------------------|
|-------------------------------------------------|

|--7-6-------6-7p6---6-------------------------------------------|
|--------7-9-------9---9-7-9p7---7-------------------------------|
|------8-----------------------8---6-8p6---6---------------------|
|----------------------------------------8---8-6-8p6---6---------|
|----------------------------------------------------8---8-6-8p6-|
|----------------------------------------------------------------|

|-----------------------------|--------------\\
|--4----7----------------2----|--------------\\
|--3----6--------2---1---2----|--15\\\\\\\\--\\
|--5----8--------3---2---2----|--15\\\\\\\\--\\
|----------------3---2---0----|--15\\\\\\\\--\\
|----------------1---0--------|--15\\\\\\\\--\\

Continue to play this until the last solo
|---------------------------------------------|
|-o-----------------------------------------o-|
|---6--6-6-X-6-6-6-6-6---8--8-8-X-8-8-8-8-8---|
|---4--4-4-X-4-4-4-4-4---9--9-9-X-9-9-9-9-9---|
|-o-----------------------------------------o-|
|---------------------------------------------|
comments
We did not receive enough feedback on this tab! Please rate:
print report bad tab
1 2 3 4 5
I want to post or [tab]
guest
You may want to rate the tab now too:
select rating
Please do not post tabs as comments. Select "correction" instead!