Oops, an error
Loading. Please wait.

Heaven Tab

version 6
version 6

Interactive

21,296 views 1 this week
no commentswrite comment
1 2 3 4 5
x 4
add to favorites
launch autoscroll
font size
0
reset
how to read this tab
guitar tuner
Autoscroll
slow
fast
+/-
esc
set tempo
stop
Help us to improve Ultimate-Guitar.com Take our survey!
×
Difficulty
intermediate
                                HEAVEN 
                        (Rhythm and Lead Guitar)
                     As recorded by Los Lonely Boys
                  (From the 2003 Album LOS LONELY BOYS)
                        Transcribed by: rekambat
                          Zflanker89@yahoo.com 
| /  slide up
| \  slide down
| \\ slide all the way down
| h  hammer-on
| p  pull-off
| ~  vibrato
| '  let it ring
| "  stop ring 
| x  mute note
| d  strum down
| u  strum up
| *  optional note or chord
| v  indicator
| ^  full bend (when note directly follows ^, bend and release) 
| 1,2,3 drum beat (...= played fast)

Tuning: Standard 

____________________________________________________________________
_________________________Rhythm Guitar:_____________________________ 
(use thumb to play E string and mute A string)

VERSE/CHORUS: electric with clean tone 
   F#                               G#m
e|-2--22-2-x--xx-2----2---22--22--x|4--44-4-x--xx-4----4---44--44--x|
B|-2--22-2-x--xx-2----2---22--22--x|4--44-4-x--xx-4----4---44--44--x|
G|-3--33-3-x--xx-3h4--3---33--33--x|4--44-4-x--xx-4h6--4---46--44--x|
D|-4--44-4-x--xx-4----4---44--44--x|6--66-6-x--xx-6----6---66--66--x|
A|-x--xx-x-x--xx-x----x---xx--xx--x|x--xx-x-x--xx-x----x---xx--xx--x|
E|-2--22-2-x--xx-2----2---22--22--x|4--44-4-x--xx-4----4---44--44--x|
      *                                *
   1   .   2   .   3   .   4   .    1   .   2   .   3   .   4   .
   d  ud u d  ud u    u   ud  ud  u d  ud u d  ud u    u   ud  ud  u
____________________________________________________________________
BRIDGE: electric with semi-distorted tone (same as lead guitar)
   G#m                        Am    Bbm
e|-4'\\----------------4------5----|6'------------6----6------------|
B|-4'\\----------------4------5----|6'------------------6--6--------|
G|-4'\\----------------4------5----|6'----------6-----------6--6----|
D|-6'\\----------------6------7----|8'----------8---------------6--6|
A|-x'\\----------------x------x----|x'------------------------------|
E|-4'\\----------------4------5----|6'------------------------------|
                                      
   1   .   2   .   3   .   4   .    1   .   2   .   3   .   4   .
   d                   d      u     d           d u    ud  ud  ud  u
   E               B                C#
e|---------------------------------|--------------------------------|
B|-0'--------------4'--------------|6'------------------------------|
G|-1'--------------4'--------------|6'------------------------------|
D|-2'--------------4'--------------|6'------------------------------|
A|-2'--------------2'--------------|4'------------------------------|
E|-----------------x'--------------|x'------------------------------|
                                      
   1   .   2   .   3   .   4   .    1   .   2   .   3   .   4   .
   d               d                d

e|---------x\\---------------------|
B|---------x\\---------------------|
G|---------x\\---------------------|back to VERSE
D|---------x\\---------------------|
A|---------x\\---------------------|
E|--------21\\---------------------|
                                      
   1   .   2   .   3   .   4   .    
           u

_____________________________________________________________________
____________________________Lead Guitar:_____________________________
                 (electric with semi-distorted tone)
INTRO: iVamanos!
                          v   vv  v
e|-6~----6-----------7/9--99--99--9|9-\7--7-------11--11--11--11--11|
B|-7~----7-----------9/11--11------|11\9--9-------12--12--12--12--12|
G|---------------------------------|--------------------------------|
D|---------------------------------|--------------------------------|
A|---------------------------------|--------------------------------|
E|---------------------------------|--------------------------------|
                                      
   1   .   2   .   3   .   4   .    1   .   2   .   3   .   4   .
   d     u           u    ud  ud  u d     u       u   u   u   u   u


e|11\9----9----------9---9---9---9-|9-\7--7---9---11--11--9-9--x7--x|
B|12\1111-11---------11--11--11--11|11\99-9---11--12--12--1111-x9--x|
G|---------------------------------|--------------------------------|2X
D|---------------------------------|--------------------------------|
A|---------------------------------|--------------------------------|
E|---------------------------------|--------------------------------|
                 (NOTE: 2nd time, play both strings where indicated!)                                    
   1   .   2   .   3   .   4   .    1   .   2   .   3   .   4   .
   d   d  u          u   u   u   u  d   d u   u   u   u   u d  ud  u


e|-6~----6-------------------------|----------------9^--9-----------|
B|-7~----7--------9^-9p7---7~------|7----------------------9^-9p7-7~|
G|------------------------8--------|----8---------------------------|
D|---------------------------------|--------------------------------|
A|---------------------------------|--------------------------------|
E|---------------------------------|--------------------------------|
                                      
   1   .   2   .   3   .   4   .    1   .   2   .   3   .   4   .


e|------------67--6h7p6---6-----------|-----------------------------|
B|--------79-------------9--9^9--7----|7--7----9--x----7\\----------|
G|-----8--------------------------8---|----8-------8----------------|
D|------------------------------------|-----------------------------|
A|------------------------------------|-----------------------------|
E|------------------------------------|-----------------------------|
                                      
   1   .   2   .   ...3   .   4   .    1   .   2   .   3   .   4   .
____________________________________________________________________
VERSE/CHORUS: 
This is barely heard throughout the song, but it's lead guitar. Here's 
moslty what is played during the VERSE/CHORUS, however, there are 
variations.

e|---------------------------------|--------------------------------|
B|---------------------------------|--------------------------------|
G|-------NOTHING-------------------|--------------------------------|
D|---------------------------------|--------------------------------|
A|---------------------------------|--------------------------------|
E|---------------------------------|--------------------------------|
                                      
   1   .   2   .   3   .   4   .    1   .   2   .   3   .   4   .

e|---------------------------------|--------------------------------|
B|---------------------------------|--------------------------------|
G|---------------------------------|--------------------------------|
D|-----------------4---------------|--------------------------------|
A|------------x6-------6------x6---|--------------------------------|
E|---------------------------------|--------------------------------|
                                      
   1   .   2   .   3   .   4   .    1   .   2   .   3   .   4   .
____________________________________________________________________
FILL: (be mindful of the ringing, it makes a huge sound difference)

e|---------9--7---6----------------|--------------------------------|
B|--------------------7------------|---------------7---------------7'~
G|------------------------6'~------|--------"-----------------------|
D|---------------------------------|--------8--9-------8---9---8----|
A|---------------------------------|--------------------------------|
E|---------------------------------|--------------------------------|
                                      
   1   .   2   .   3   .   4   .    1   .   2   .   3   .   4   .

e|---------------------------------|7'------6'-----"----------------|
B|---------------------------------|---------------7----------------|
G|-----------------------------6/8'|--------"-----------------------|
D|---------------------------------|--------------------------------|
A|---------------------------------|--------------------------------|
E|---------------------------------|--------------------------------|
                                      
   1   .   2   .   3   .   4   .    1   .   2   .   3   .   4   .
____________________________________________________________________
SOLO:

e|9^-|----9--------------------------|----6---7-------6-7p6---6------|
B|---|--------9^9p7---7~---------7--7|9^----------9^---------9--9^9p7~
G|---|---------------8------------8--|-------------------------------|
D|---|-------------------------------|-------------------------------|
A|---|-------------------------------|-------------------------------|
E|---|-------------------------------|-------------------------------|
                                      
  .   1   .   2   .   3   .   4   .   1   .   2   .   3   .   4   .

e|-----------------9---------------|--9^---7---6----------------6---|
B|------------7---7---77--7~--7----|--------------9^--9p7---7--9--7~|
G|-------------8-------------------|-----------------------8--------|
D|---------------------------------|--------------------------------|
A|---------------------------------|--------------------------------|
E|---------------------------------|--------------------------------|
                                      
   1   .   2   .   3   .   4   .    1   .   2   .   3   .   4   .

e|---------9-----------------7-8--9|------7-8--9------7-8--9--14-14\\
B|--------7----7--7---7--7-9^------|----9^----------9^--------------|
G|-----8------8--------8-----------|--------------------------------|
D|---------------------------------|--------------------------------|
A|---------------------------------|--------------------------------|
E|---------------------------------|--------------------------------|
                                      
   1   .   2   .   3   .   4   .    1   .   2   .   3   .   4   .

e|---------------7---6--------66--6|76--6---------------------------|
B|-------------------------9-------|--9--97-97--7-------------------|
G|------------------------8--------|----------8--86-86--6-----------|
D|---------------------------------|------------------8--86-6-------|
A|---------------------------------|-------------------------96-9--6|
E|---------------------------------|--------------------------------|
                                      
   1   .   2   .   3   .   4   .    1   .   2   .   3   .   4   .
____________________________________________________________________
OUTRO: (if you want the outro, email me and i can make a 
perfect tab for it)
Suggest correction
comments
print report bad tab
guest
You may want to rate the tab now too:
select rating
Wanna post a correction for this tab? Suggest correction