Oops, an error
Loading. Please wait.

I Walk The Line Tab

2,532 views 1 this week
no commentswrite comment
1 2 3 4 5
please rate
add to favorites
launch autoscroll
font size
0
reset
how to read this tab
guitar tuner
Tab Pro tools
  • play this tab
  • loop segment
  • change instrument
  • show fretboard
  • metronome
×
Best way to learn
"I Walk The Line"
Autoscroll
slow
fast
+/-
esc
set tempo
stop
Contributor
Los Lonely Boys
I Walk The Line (Johnny Cash Cover)
I Walk The Line - Single
Tuning: Half Step Down (Eb Ab Db Gb Bb Eb)
Transcribed by Soch Hean

Intro:
|---------------------------------------------------------------------|
|---------------------------------------------------------------------|
|---------------------------------------------------------------------|
|----------2~-------0-------------2-2-2-2--2-4--2--4--2--4--2--4\-----|
|----0-1-2----0-1-2----0-1-2-4~---0-0-0-0--0-0--0--0--0--0--0--0------|
|-0-------------------------------------------------------------------|

Verse:
|--------------------------|------------------------------|
|--------------------------|------------------------------|
|--------------------------|------------------------------|
|--------------2--4--2--4--|--------------2--4--2--4------|
|-2--4--2-4-4--0--0--0--0--|-2--4--2-4-4--0--0--0--0------|
|-0--0--0-0-0--------------|-0--0--0-0-0------------------|

|-----------------------------------------------------------|
|-----------------------------------------------------------|
|-2--4--2--4------------------------------------------------|
|-0--0--0--0--2--4--2--4---------------2--4--2--4p2---------|
|-------------0--0--0--0--2--4--2-4-4--0--0--0--------------|
|-------------------------0--0--0-0-0---------------3--0----|

Guitar Interlude:
|-0-0-0-0-0-0-0-0-0---------------|
|-3-3-3-3-5-3-3-3-3---------------|
|-------------------2p0-----------|
|-----------------------2p0-------|
|---------------------------------|
|---------------------------0-----| (x3)

|---------------------------------|
|----3-3----3-3-3-3-3-3-3-3-------|
|-4--4-4----4-4-4-4-4-4-4-4-------|
|---------------------------------|
|---------------------------------|
|---------------------------------|

|-------------------------------------|
|-------------------------------------|
|-------------------------------------|
|---2--4--2--4p2-------2--4--2-4------|
|-0-0--0--0------3--0--0--0--0-0------|
|-------------------------------------|

Verse 2:
|--------------------------|------------------------------|
|--------------------------|------------------------------|
|--------------------------|------------------------------|
|--------------2--4--2--4--|--------------2--4--2--4------|
|-2--4--2-4-4--0--0--0--0--|-2--4--2-4-4--0--0--0--0------|
|-0--0--0-0-0--------------|-0--0--0-0-0------------------|

|---------------------------------------------------|
|---------------------------------------------------|
|-2--4--2--4----------------------------------------|
|-0--0--0--0--2--4--2--4---------------2--4--2-4----|
|-------------0--0--0--0--2--4--2-4-4--0--0--0-0----|
|-------------------------0--0--0-0-0---------------|

|-------------------------|
|-------------------------|
|-------------------------|
|--------------2--4--2-4\-|
|-2--4--2-4-4--0--0--0-0--|
|-0--0--0-0-0-------------|

Guitar Solo:
|-0-0-0-0-0-0-0-0-0---------------0-0-0-0--------------------|
|-3-3-3-3-3-3-3-3-3---------------3-3-3-3-3s5-5-5-5-5~-------|
|-------------------2p0--------------------------------------|
|-----------------------2p0----------------------------------|
|------------------------------------------------------------|
|---------------------------0--------------------------------|

|-------3---5---5p3-----3-------0---------------------------------------|
|-0-5-0---0---5-----5-0---5p3p0-0---------------------------------------|
|---------------------------------0-2b3rp0-2-2b3rp0---2-0---------------|
|---------------------------------------------------2-----2-0-----------|
|-------------------------------------------------------------2-1-0h1p0-|
|-----------------------------------------------------------------------|

|--------------0---0-0-0-0--0---0-0-0-0-0-0-0-0-0-0-0-0-----|
|--------------2s5-5-5-5-5--7s9-9-9-9-9-9-9-9-9-9-9-9-9-----|
|-----------------------------------------------------------|
|---2~-----2~-----------------------------------------------|
|-----------------------------------------------------------|
|-3----3-3--------------------------------------------------|

|-------------------------------------------|
|-------------------------------------------|
|-----------2-------2-------2-2-2-2-2-2-2---|
|---2---------2-------2-----0-0-0-0-0-0-0---|
|---0--2p0----0-2p0---0-2p0-----------------|
|-0-----------------------------------------|

[Verse 3] (Play the verse)

|------------------------------------------------|
|----------17~----------15~----------14~--\------|
|-14-15-16-----14-15-16-----14-15-16------\------|
|------------------------------------------------|
|------------------------------------------------|
|------------------------------------------------|

Verse 4:
|-------------------------------------------------------------------|
|-------------------------------------------------------------------|
|----------------------------2-2---2-2------------------------------|
|--2-2----2-2---2-2----2-2-------------2-2--------------------------|
|--------------------------0-----0-----0-0--------2-2-2-2-2-2-2-----|
|------0------0------0---------------------4-2-0--0-0-0-0-0-0-0-----|
PM|-----------------------------------|

|-----------------------------------------------------|
|-----------------------------------------------------|
|-------------------2---------------------------------|
|-2-2-2-2---------0---0-0-0-0-----2-2-2-2-2-2-2-2-----|
|-0-0-0-0-0-0-2-4-------------4-2-0-0-0-0-0-0-0-0-----|
|-----------------------------------------------------|

|-------------------|
|-------------------|
|-------------------|
|---------2---------|
|-2-------0-(x8)----|
|-0-(x8)------------|

|--------------------------|------------------------------|
|--------------------------|------------------------------|
|--------------------------|------------------------------|
|--------------2--4--2--4--|--------------2--4--2-2-2-----|
|-2--4--2-4-4--0--0--0--0--|-2--4--2-4-4--0--0--0-0-0-----|
|-0--0--0-0-0--------------|-0--0--0-0-0--------------3-0-|

Outro:
|-0-0-0-0-0-0-0-0-0---------------|
|-3-3-3-3-5-3-3-3-3---------------|
|-------------------2p0-----------|
|-----------------------2p0-------|
|---------------------------------|
|---------------------------0-----| (x3)

|-0-0-0-0-0-0-0-0-0----------------------------------------------------|
|-3-3-3-3-5-3-3-3-3--------------------------------------------------5-|
|---------------------------------------------2---------11s10s9------6-|
|--------------------------0------------------2----------------------5-|
|--------------------0-1-2----0-1-2-4~--------0----------------------7-|
|---------------------------------------0-3-4------------------------5-| 

Legend:
PM - palm mute
r - release
p - pulloff
s - slide
h - hammeron
b - bend
comments
We did not receive enough feedback on this tab! Please rate:
print report bad tab
1 2 3 4 5
I want to post or [tab]
guest
You may want to rate the tab now too:
select rating
Please do not post tabs as comments. Select "correction" instead!