Oops, an error
Loading. Please wait.

La Contestación Tab

version 1
version 1

Whole song

2,076 views 1 this week
no commentswrite comment
1 2 3 4 5
please rate
add to favorites
launch autoscroll
font size
0
reset
how to read this tab
guitar tuner
Autoscroll
slow
fast
+/-
esc
set tempo
stop
Help us to improve Ultimate-Guitar.com Take our survey!
×
LA CONTESTACION
Los Lonely Boys

(Piano intro)

            C#
A poco no esta
  G#    Bbm
duro pa ti
              F#
Pa que sigues asi
             C#   G#
Si aqui esto yo

           C#
Nunca te hacer
     G#     Bbm
sentido que ya
            F#
parece el final
               C#
Pues fijate en mí
     G#           F#   G#
Tu encontraras Contestacion

          C#
Fijate en ti
    G#        Bbm
Muy dentro de ti
                       F#
Tu vas a encontrarme a mi

Para darte amor

CHORUS:
Bbm               F
Que evita, que no sientes
     Eb                  Bbm
Cuando te tengo cerca de mi
           F#
Yo quiero acerte bien

Quiero apretarte mas
C#            G#    C#
Yo quiero que sepas tu

    G#       Bbm
Que cuando estas cerca de mi
                    F#
Ya no tienes que llorar
                   C#
Porque yo estare alli
              F#  G#
Para darte en mi amor

e--------------------------------------------------------|
B--------------------------------5\4--4\2--2/4--4/6--6---|
G--8h10--8--8p6--6--5--6\3--3----------------------------|
D--------------------------------------------------------|
A--------------------------------------------------------|
E--------------------------------------------------------|

e--------------------------------------------------------|
B--10^--10--10^9-----------------------------------------|
G-----------------10--8-------------------11p10----------|
D------------------------11--11/13----11---------11------|
A--------------------------------------------------------|
E--------------------------------------------------------|

e--------------------------------------------------------|
B--------------------------------------------------------|
G------13--11--10----------------------------------------|
D--11--------------11------------------11----------------|
A----------------------11--9--8h9--8---------------------|
E--------------------------------------------------------|

e--------------------------------------------------------|
B--------------7p6---------------------------------------|
G-----------6-------6------------------------------------|
D--------6-----------------------------------------------|
A-----8--------------------------------------------------|
E--9-----------------------------------------------------|

Repeat Chorus and Verse-after-Chorus

e--------------------------------------------------------|
B--------6--7----6h7p6--4-------9h11p9-------------------|
G--6--8--------------------6------------10--8------------|
D----------------------------------------------11--------|
A--------------------------------------------------------|
E--------------------------------------------------------|

e--------------------------4-----------------------------|
A--------------------------6-----------------------------|
A------11------------------6-----------------------------|
A--11------11------11--13--6-----------------------------|
A--------------13----------4-----------------------------|
E--------------------------4-----------------------------|

(Piano outro)
comments
We did not receive enough feedback on this tab! Please rate:
print report bad tab
1 2 3 4 5
I want to post or [tab]
guest
You may want to rate the tab now too:
select rating
Please do not post tabs as comments. Select "correction" instead!