Oops, an error
Loading. Please wait.

Real Emotions Tab

version 1
version 1

Whole song

Interactive

5,377 views 1 this week
no commentswrite comment
1 2 3 4 5
please rate
add to favorites
launch autoscroll
font size
0
reset
how to read this tab
guitar tuner
Autoscroll
slow
fast
+/-
esc
set tempo
stop
Help us to improve Ultimate-Guitar.com Take our survey!
×
Author
Los Lonely Boys
Real Emotions
Tuning: (EADGBE) Standard
Transcribed by Soch H.

Main Riff:
|-2-2-------0-x-2-2-x---0---2----|
|-3-3-------0-x-2-2-x---0---2----|
|-4-4-------0-x-3-3-x---0---3----|
|-4-4--4--2-----4-4---2---4------|
|-2-2----------------------------|
|--------------------------------| (x2)

|-2-2-------0-x-2-2-x-----------------|
|-3-3-------0-x-2-2-x-----------------|
|-4-4-------0-x-3-3-x-----------------|
|-4-4--4--2-----4-4-----2-------------|
|-2-2-----------------4---4h5p4-2-0---|
|-------------------------------------|

|-----2-----0--2--2-----2-2-2-2--|
|-----2-----0--2--2-----2-2-2-2--|
|-----3-----0--3--3-----3-3-3-3--|
|---4---4-2----4--4-----4-4-4-4--|
|-2------------4--4-----4-4-4-4--|
|--------------2--2-----2-2-2-2--|

Verse 1:
|-2-----2-----0-----0-----2-----2-----2-----------|
|-3-----3-----0-----0-----2-----2-----3-----------|
|-4-----4-----0-----0-----3-----3-----4-----------|
|-4-----4-----2-----2-----4-----4-----4-----------|
|-2-----2-----2-----2-----4-----4-----2-----2--0--|
|-------------0-----0-----2-----2--------2--------| (x2)

|-2-----2-----0-----0-----2--------2------2-2-2-2---|
|-3-----3-----0-----0-----2------2---2----2-2-2-2---|
|-4-----4-----0-----0-----3----3-------3--3-3-3-3---|
|-4-----4-----2-----2-----4--4------------4-4-4-4---|
|-2-----2-----2-----2-----4---------------4-4-4-4---|
|-------------0-----0-----2---------------2-2-2-2---|

Chorus:
|-2-2-------0-x-2-2-x-2-2-------------|
|-3-3-------0-x-2-2-x-2-2-------------|
|-4-4-------0-x-3-3-x-3-3-------------|
|-4-4--4--2-----4-4---4-4-------------|
|-2-2------------------------2p0------|
|--------------------------2----------|(x4)

Verse 2:
|-2-----2-----0-----0-----2-----2-----2-----------|
|-3-----3-----0-----0-----2-----2-----3-----------|
|-4-----4-----0-----0-----3-----3-----4-----------|
|-4-----4-----2-----2-----4-----4-----4-----------|
|-2-----2-----2-----2-----4-----4-----2-----2--0--|
|-------------0-----0-----2-----2--------2--------| (x2)

|-2-----2-----0-----0-----2-----2-------2-2-2-2---|
|-3-----3-----0-----0-----2-----2-------2-2-2-2---|
|-4-----4-----0-----0-----3-----3-------3-3-3-3---|
|-4-----4-----2-----2-----4-----4-------4-4-4-4---|
|-2-----2-----2-----2-----4-----4-------4-4-4-4---|
|-------------0-----0-----2-----2-------2-2-2-2---|

Chorus:
|-2-2-------0-x-2-2-x-2-2-------------|
|-3-3-------0-x-2-2-x-2-2-------------|
|-4-4-------0-x-3-3-x-3-3-------------|
|-4-4--4--2-----4-4---4-4-------------|
|-2-2------------------------2p0------|
|--------------------------2----------|(x4)

|-2-2-------0-x-2-2-x-----------------|
|-3-3-------0-x-2-2-x-----------------|
|-4-4-------0-x-3-3-x-----------------|
|-4-4--4--2-----4-4-----2-------------|
|-2-2-----------------4---4h5p4-2-0---|
|-------------------------------------|

|-----2-----0--2--2-----2-2-2-2--|
|-----2-----0--2--2-----2-2-2-2--|
|-----3-----0--3--3-----3-3-3-3--|
|---4---4-2----4--4-----4-4-4-4--|
|-2------------4--4-----4-4-4-4--|
|--------------2--2-----2-2-2-2--|

Solo: (1:48)
|-----------------------------------7------------------|
|-10b12=--10pb12--7-------------------7-10p7-----------|
|-------------------9b11-9~--7-9b11----------9b11--9p7-|
|------------------------------------------------------|
|------------------------------------------------------|
|------------------------------------------------------|

|--------------7---------------------------9-10p9-10p9-|
|----------------10-----------------10--12-------------|
|---------9b11------9b11-9~--7-9b11--------------------|
|-9p7-9~-----------------------------------------------|
|------------------------------------------------------|
|------------------------------------------------------|

|----9-10p9-10p9----9-10p9-10p9----9-10p9-10p9----9----|
|-12-------------12-------------12-------------12------|
|------------------------------------------------------|
|------------------------------------------------------|
|------------------------------------------------------|
|------------------------------------------------------|

|-10p9-12p9-10p9----9-10p9-12p9-10p9-------------------|
|----------------12------------------12~\\--12-12-11~--|
|------------------------------------------------------|
|------------------------------------------------------|
|------------------------------------------------------|
|------------------------------------------------------|

|-------------10b12-10b10.5--7---10-7~----------------------|
|-7----------------------------7-------10-7-----------------|
|---9b11-9~---------------------------------9b11-9p7-9p7----|
|--------------------------------------------------------9~-|
|-----------------------------------------------------------|
|-----------------------------------------------------------|

|-10b12-10b10.5--7----------------------------10------------|
|------------------7-------------------10s=12----12~--10s=12|
|--------------------9b11rp7--------------------------------|
|----------------------------9---9-9~-----------------------|
|------------------------------9----------------------------|
|-----------------------------------------------------------|
                      TP  TP  TP  TP
|-10----------------------------------------------------------|
|----12----12-12~-10--12--14--15--17--17b19-17b19-17b19-17b19-|
|-------11----------------------------------------------------|
|-------------------------------------------------------------|
|-------------------------------------------------------------|
|-------------------------------------------------------------|

|------------------x\----------------------------------|
|-17b19-17b19~~----x\----------------------------------|
|------------------------------------------------------|
|------------------------------------------------------|
|------------------------------------------------------|
|------------------------------------------------------|

Bridge:
Em                      Bm
Everything I have I'll give to you
Em                                Bm
I'll make your dreams and wishes all come true
Em                          Bm
We'll burn together in the heat of love 
F#
Under the stars above

Play Chorus


Solo 2: (3:10)
|------7-----------------------------------------7---7-|
|--------7-10p7-------------------------------10---7---|
|-9b11----------9b11-9-7-6-7~--6-7-9~--7-9b11----------|
|------------------------------------------------------|
|------------------------------------------------------|
|------------------------------------------------------|

|---7-10-7------------9-10~-9-10p9------------12b14-12b14-|
|-7--------10b11~--12--------------12p10-12~--------------|
|---------------------------------------------------------|
|---------------------------------------------------------|
|---------------------------------------------------------|
|---------------------------------------------------------|

|-12b14-12~--12pb14-10---------------------------------|
|----------------------12-10-12~--12----10----12-11~---|
|------------------------------------11----11----------|
|------------------------------------------------------|
|------------------------------------------------------|
|------------------------------------------------------|

|---7-------7---------7---------7---------7------------|
|-7---10b11---7-10b11---7-10b11---7-10b11---7-10p7-----|
|------------------------------------------------------|
|------------------------------------------------------|
|------------------------------------------------------|
|------------------------------------------------------|

|--------------------7-7-9-7h8p7----7---10b12-10--7---|
|------------------7-7-7---------10---7-------------7-|
|-9b11rp7---7-9b11------------------------------------|
|---------9-------------------------------------------|
|-----------------------------------------------------|
|-----------------------------------------------------|

|------------------------------------------------------|
|-10-7--------------------------------7----------------|
|------9b11rp7-9~---9b11rp7-9p7---7-9---9-7s6-7p6-4s6--|
|-------------------------------9----------------------|
|------------------------------------------------------|
|------------------------------------------------------|

|-------------------------------------------------------|
|-------------------------------------------------------|
|------------7---7-9-9-9-9-----7---7-9-9-9-9---9=b11rp7-|
|-7s9-9~--/9---9------------/9---9----------------------|
|-------------------------------------------------------|
|-------------------------------------------------------|

|------------------------------------------------------|
|------------------------------------------------------|
|-----------7~---7-9-9-9-9-----7---7-9-9-9-9--9=b11rp7-|
|-9p7-9~--9----9------------/9---9---------------------|
|------------------------------------------------------|
|------------------------------------------------------|

|------------------------------------------------------|
|------------------------------7----7-7-7------------7-|
|-----------6-6-6-7-7-7-9-9-9--9b11======--7~-6~-----7-|
|-9p7-9-9-9--------------------------------------7~--9-|
|----------------------------------------------------9-|
|------------------------------------------------------|

Chords:
Bm:   x24432
Em:   022000
F#:   244322

Legend:
s:   slide
p:   pulloff
h:   hammeron
TP:  tremelo pick
b:   bend
pb:  pre-bend
Suggest correction
What's this?
You can suggest a correction to this tab. Community and Mods will review your correction and vote to approve or reject it.
comments
We did not receive enough feedback on this tab! Please rate:
print report bad tab
1 2 3 4 5
guest
You may want to rate the tab now too:
select rating
Please do not post tabs as comments. Select "correction" instead!