Oops, an error
Loading. Please wait.

Dime Que Me Quieres Tab

version 1
version 1

Whole song

55 views 1 this week
no commentswrite comment
1 2 3 4 5
3 more votes to show rating
add to favorites
launch autoscroll
font size
0
reset
how to read this tab
guitar tuner
Autoscroll
slow
fast
+/-
esc
set tempo
stop
Help us to improve Ultimate-Guitar.com Take our survey!
×
Asus4/Db: |x00220|

===================Intro===============================

Asus4/Db E   F#m  Asus4/Db E   F#m  Asus4/Db E    
 ----0-----0-----2-----0-----0-----2-----0-----0------
 ---2-----1-----2-----2-----1-----2-----2-----1-------
 --2-----1-----2-----2-----1-----2-----2-----1--------
 -0-----------------0-----------------0---------------
 -------2-----------------2-----------------2---------
 -------------2-----------------2---------------------


  F#m   D        E
 ----2-----2--------0---------------------------------
 ---2-----3-3------1----------------------------------
 --2-----2---2----1-----------------------------------
 -------0-----0---------------------------------------
 ----------------2------------------------------------
 -2---------------------------------------------------


Punteo 1

  Asus4/Db   E        F#m     Asus/Db E       F#m 
 -----------------------------------------------------
 -10-9-8------------------------------7-9-10--7-9-10--
 --------9-7-6-7-9-9--7/6-----7-6-7-9-----------------
 ------------------------7----------------------------
 -----------------------------------------------------
 -----------------------------------------------------

  Asus4/Db E    F#m      D             E       
 -10-9-7----7-9-10-9/7--------------------------------
 --------10--------------7---7-7----------------------
 --------------------------------9-7/6-9-------6-7-6--
 ------------------------------------------7-9-------7
 -----------------------------------------------------
 -----------------------------------------------------

 Asus4/Db              E     F#m   Asus4/Db 
 Hay una cosa que te quiero decir
                       E     F#m   Asus4/Db
 que es importante al menos para mi
                      E      F#m
 toda la noche estube sin dormir
         D                E              
 porque una frase de tu boca quiero escuchar 


 A   F#m D   E
 Ah, Ah, Ah, dime que me quieres
 A   F#m D   E
 Ah, Ah, Ah, dime que me quieres

 Punteo 1

 Ahora estoy triste y necesito saber
 si tu me quieres de verdad como ayer
 aunque parezca tonto voy a pedirte
 que me lo repitas una vez y otra vez

 Ah, ah, ah, dime que me quieres 
 Ah, ah, ah, dime que me quieres


 Punteo 2

  A     E        F#m     A         E     F#m
 -------------------------------------------------
 ---------7-9-10-9-7-10---------------------------
 -7-6-7-9----------------6/6/6-7-6---6-7-9-7-6----
 ----------------------------------9-----------7--
 -------------------------------------------------
 -------------------------------------------------
  
  A        E           F#m             D     
 ---------------7-9-7-9-10-9-10-12-9---10-9-7---------
 ---7-9-10-9-10---------------------------------10-9-7
 -9---------------------------------------------------
 -----------------------------------------------------
 -----------------------------------------------------
 -----------------------------------------------------
  (este trozo se toca bastante rapido)
    E    
 -----------
 -----------
 ---9-7-6---
 -----------
 -----------
 -----------


 Me costo mucho y al final decidi
 ir a tu casa y ahora estoy frente a ti
 quiero escucharlo y no me importa rogarte
 por favor no juegues con mi corazon.

 Hay una cosa que te quiero decir
 que es importante al menos para mi
 son dos palabras para hacerme feliz
 dimelo al oido una vez y otra vez

 Ah, ah, ah, dime que me quieres
 Ah, ah, ah, dime que me quieres
  
 dime que me quieres
 dime que me quieres

 ah, ah, ah, dime que me quieres
 ah, ah, ah, dime que me quieres
 ah, ah, ah, dime que me quieres
 ah, ah, ah, dime que me quieres
 ah, ah, ah, dime que me quieres
Suggest correction
Give kudos to tab author, rate the tab!
1 2 3 4 5
comments
print report bad tab
guest
You may want to rate the tab now too:
select rating
Wanna post a correction for this tab? Suggest correction