Oops, an error
Loading. Please wait.

Dime Que Me Quieres Tab

version 2
version 2

Whole song

214 views 1 this week
no commentswrite comment
1 2 3 4 5
3 more votes to show rating
add to favorites
launch autoscroll
font size
0
reset
how to read this tab
guitar tuner
Autoscroll
slow
fast
+/-
esc
set tempo
stop
Help us to improve Ultimate-Guitar.com Take our survey!
×
Bueno qeria poner una forma q saqe yo a partir de los otros acordes
q estan bueno a mi me gusta como suena..pero bueno esta es una d mis
primeras tablaturas..y buen este es un temaso de tequila reversionado
por los lunes q suena re bien...solo ay q seguirle el rito de la cancion..
aconsejo q canten uds por las dudas para no perderse con la musica tanto...
el ritmo es el mismo pero por ahi no esta tan al pie de la letra..
Espero q les guste...
Chauuu...gonza_19


(en todas las frases igual)
Asus4/Db            E          F#m

------------------------------------------------------e
-2---------2--------0-------0--2------2---------------B
---2---------2--------1-------------2---2-------------G
--------0---------------------------------------------D
-0----0--------0----2-------0--4----------------------A
------------------------------------------------------E

hay una cosa q t   quiero  de-cir
que es importante al menos para-mi
toda la noche estube sin   dor-mir  porq
  D                    E                          Asus4/Db
----------------------------------------------0---------0---e
--3------------3-------0----------0----------0--------2-----B
----2-----------2----------1--------1-------1-------2-------G
----------0---------------------2-----------------0---------D
--0----0----------0--0-2-----2--------2---2-----------------A
------------------------------------------------------------E
  una frase de tu boca qiero escuchaaaar


Estribillo repite x2

 A      F#m    D       E
--------------------------------------e
-2------2------3-3---3-2--------0-----B
---2---2--2---2----2-----1--------1---G
-----2------2-----------------2-------D
-0------4------0-------0---2--------2-A
--------------------------------------E

 ahhah..ahhah..ahhah..dime q me qieres


(igual q la primera estrofa)

 Ahora estoy triste y necesito saber
 si tu me quieres de verdad como ayer
 aunque parezca tonto voy a pedirte
 que me lo repitas una vez y otra vez


Estribillo

Ahhh Ahhh...dime q me qieres
Ahhh Ahhh...dime q me qieres


Cualqier duda o consulta mi mail es...gonzalo_rego@
Suggest correction
Give kudos to tab author, rate the tab!
1 2 3 4 5
comments
print report bad tab
guest
You may want to rate the tab now too:
select rating
Wanna post a correction for this tab? Suggest correction