Oops, an error
Loading. Please wait.

Plato Roto Bass Tab

14 views 3 this week
no commentswrite comment
1 2 3 4 5
3 more votes to show rating
add to favorites
launch autoscroll
font size
0
reset
guitar tuner
×
Best way to learn
"Plato Roto"
Autoscroll
slow
fast
+/-
esc
set tempo
stop
AlOjA:
K BUENA OLA DE BUENA VIBRA
ESTA TAB ES PARA EL BUEN AMIGO KESORTE
K ES DE LENTO APRENDISAJE (EXESO DE REHABILITACION
EN EL CHELETON)POBRESITO EL CHAVO


SuRf AnD BeEr´S
Y DICE:
LUCHARAN A DOS CAIDAS DE TRES SIN LIMITE DE TIEMPO
MASCARA CONTRA MASCARA EN ESTA ESQUINA EL ENMASCARADO AGUILA NEGRA
EN ESTA OTRA EL INVENCIBLE SANTA EL ENMASCARADO DE PLATA!!!!!!!!!


INTRO
G)---------------------------------------------------
D)---7/12-12--12/17-17--17/12-12-12/19-19-19-17/12-7-
A)---------------------------------------------------
E)---------------------------------------------------


RIFF 1

G)-------------------------------
D)-------------------------------
A)-----3-4-5-5-5-3-5-3---5-5-3---
E)---5-----------------5---------


RIFF 2
G)-------------------------------
D)-----3-4-5-5-5-3-5-3---5-5-3---
A)---5-----------------5---------
E)-------------------------------


RIFF 3
G)-------------------------------
D)-----3-5-7-7-7-5-7-5---5-5-3---
A)---5-----------------5---------
E)-------------------------------


RIFF 4
G)-------------
D)-------------
A)---4h5-5-5---
E)-------------


RIFF 5
G)------------
D)---4h5-5-5--
A)------------
E)------------


RIFF 6
G)----------------------
D)----------------------
A)-------5---------3----
E)---5-7---7---3-5---5--


POR CIERTO OTRO SALUDO A LUPITA YE YE Y CARO A GO GO
Y PARA K SE NO PONGA SELOSO EL JUANITO PARA EL TAMBIEN VA
JUANITO SURFER (K SE PIKE EL CULO POR WEY)
Suggest correction
Give kudos to tab author, rate the tab!
1 2 3 4 5
comments
print report bad tab
guest
You may want to rate the tab now too:
select rating
Wanna post a correction for this tab? Suggest correction