Oops, an error
Loading. Please wait.

Plato Roto Tab

22 views 1 this week
no commentswrite comment
1 2 3 4 5
3 more votes to show rating
add to favorites
launch autoscroll
font size
0
reset
how to read this tab
guitar tuner
Autoscroll
slow
fast
+/-
esc
set tempo
stop
Help us to improve Ultimate-Guitar.com Take our survey!
×
AlOjA:
DE NUEVO HE AQUI UNA DE MIS ROLAS FAVORITAS
SI TIENES DUDAS O TENGO ERRORES MANDENME UN MAIL
Y YO LO SOLUCIONARE A POR CIERTO EL SOLO SE LO DEJO AL JUANITO
ESE WEY LO VA A SACAR DE VOLADA LASTIMA K NO KIERA
LOS THE CAMANEIS PARA EL MUNDO


SuRf AnD BeEr's


Y DICE:
LUCHARAN A DOS CAIDAS DE TRES SIN LIMITE DE TIEMPO
MASCARA CONTRA MASCARA EN ESTA ESQUINA EL ENMASCARADO AGUILA NEGRA
EN ESTA OTRA EL INVENCIBLE SANTA EL ENMASCARADO DE PLATA!!!!!!!!!


RIFF 1
e)-------------------------------
B)-------------------------------
G)-------------------------------
D)-------------------------------
A)-----3-4-5-5-5-3-5-3---5-5-3---
E)---5-----------------5---------


RIFF 2
e)-------------------------------
B)-------------------------------
G)-------------------------------
D)-----3-4-5-5-5-3-5-3---5-5-3---
A)---5-----------------5---------
E)-------------------------------


RIFF 3
e)-------------------------------
B)-------------------------------
G)-------------------------------
D)-----3-5-7-7-7-5-7-5---5-5-3---
A)---5-----------------5---------
E)-------------------------------


RIFF 4

     D  D  G  D  G  D  A  G  D
e)---5~-5~-3~-5~-3~-5~-5~-3~-5~--
B)---7~-7~-3~-7~-3~-7~-5~-3~-7~--
G)---7~-7~-4~-7~-4~-7~-6~-4~-7~--
D)---7~-7~-5~-7~-5~-7~-7~-5~-7~--
A)---5~-5~-5~-5~-5~-5~-7~-5~-5~--
E)---5~-5~-3~-5~-3~-5~-5~-3~-5~--


RIFF 5
e)-----------------------------------------
B)-----------------------------------------
G)-----------------------------------------
D)------10-11-12-12-12-10-12-10---12-12-10-
A)---12-------------------------12---------
E)-----------------------------------------


RIFF 6
e)-----------------------------------------
B)-----------------------------------------
G)------10-11-12-12-12-10-12-10---12-12-10-
D)---12-------------------------12---------
A)-----------------------------------------
E)-----------------------------------------


RIFF  7
e)-----------------------------------------
B)-----------------------------------------
G)------10-12-14-14-14-12-14-12---12-12-10-
D)---12-------------------------12---------
A)-----------------------------------------
E)-----------------------------------------


CAMARAS LLANTITA Y RING DESPUES MANDO ES SOLITO
PARA ALUCINARSE UN POCO.......
.....MASCARITA......
.....PAKKORO....
Suggest correction
Give kudos to tab author, rate the tab!
1 2 3 4 5
comments
print report bad tab
guest
You may want to rate the tab now too:
select rating
Wanna post a correction for this tab? Suggest correction