Oops, an error
Loading. Please wait.

Miente Bass

17 views 1 this week
no commentswrite comment
1 2 3 4 5
3 more votes to show rating
add to favorites
×
Save as Personal and add changes to this tab that will be seen only by you. Learn more ›
×
You can save this tab as Personal to edit and correct it or add notes. All changes will be seen only by you. Learn more »
save as personal
new!
launch autoscroll
font size
0
reset
guitar tuner
Autoscroll
slow
fast
+/-
esc
set tempo
stop
PaNkHo

Esta rola no es muy complicada
solamente escuchenla bien


G|------------------------------------------------|
D|-------------------------------------5--7-------|
A|---------------5-5--7--------------5------7-----|
E|---5-5--7----------------5-5--7-----------------|

G|----------------------------------------|
D|----------------------------------------|
A|----------------5--7-7---------5--7-7---|
E|--5--5-7--7----------5--5-7-------------|

G|--------------------------------------------------|
D|--------------------------------------------------|
A|-----------7-7-7-7-----------7-7-7-7--5-5-5-5-5---|
E|--7-7-7-7-----------7-7-7-7-----------------------|

G|----------------------------------------7-7-7-6----| x2
D|---7---7----7--6---6----6--9---9----9--7-7-----9-7-|
A|-----7---77------4---44------9---99----------------|
E|---------------------------------------------------|

G|-------------------|
D|------------5-7----|
A|----------5----7---|
E|---5-5--7----------|

G|-------------------------------|
D|-------------------------------|
A|-----------5--7-7------5--7-7--|
E|--5--5-7--7------5--5-7--------|

G|---------------------------------------------------------------|
D|---------------------------------------------------------------|
A|----------7-7-7-7---------7-7-7-7---------7-7-7-7---5-5-5-5-5--|
E|--7-7-7-7---------7-7-7-7---------7-7-7-7----------------------|


G|--------------------------------------7-7-7-6----|
D|---7---7----7--6---6----6--9---9----9--7-7---9-7-|
A|-----7---77------4---44------9---99--------------|
E|-------------------------------------------------|


G|----------------------------------7-7-7-6-------|
D|---7---7--7--6---6---6--9---9---9--7-7---9-7--7-|
A|-----7--77-----4---44-----9---99----------------|
E|------------------------------------------------|


G|--------------------------------------------------------------------|x2
D|--------------------------------------------------------------------|
A|---------------------------------------------------5-5-5-5-5-4------|
E|-5-5-5-5-5-5-5-5--4-4-4-4-4-4-4-4--7-7-7-7-7-7-7-7------------7-5---|

G|----------------------------------7-7-7-6------|  x3
D|---7---7--7--6---6---6--9---9---9--7-7---9-7---|
A|-----7--77-----4---44-----9---99---------------|
E|-----------------------------------------------|

G|----------------------------------7-7-7-6-------|
D|---7---7--7--6---6---6--9---9---9--7-7---9-7--7-|
A|-----7--77-----4---44-----9---99----------------|
E|------------------------------------------------|

Saludos a toda la Banda
En memoria al Borre
Suggest correction
Give kudos to tab author, rate the tab!
1 2 3 4 5
comments
print report bad tab
guest
Wanna post a correction for this tab? Suggest correction