Oops, an error
Loading. Please wait.

Mundo Porno Tab

312 views 1 this week
no commentswrite comment
1 2 3 4 5
3 more votes to show rating
add to favorites
launch autoscroll
font size
0
reset
how to read this tab
guitar tuner
Autoscroll
slow
fast
+/-
esc
set tempo
stop
Help us to improve Ultimate-Guitar.com Take our survey!
×
Intro:

-|--------------------------------------------------------------------
-|--------------------------------------------------------------------
-|12-12-12-12-12-12-12-12-12-12---11-11-11-11-11---12--11--12--14/16--
-|x--x--x--x--x--x--x--x--x--x----x--x--x--x--x----x---x---x---x-/x---
-|10-10-10-10-10-10-10-10-10-10---9--9--9--9--9----10--9---10--12/14--
-|--------------------------------------------------------------------
                                                        
-|--------------------------------------------------------------------
-|--------------------------------------------------------------------
-|16-16-16-16-16-16-16-16-16-16---17-17-17-17-17---17--16--14--12-----
-|x--x--x--x--x--x--x--x--x--x----x--x--x--x--x----x---x---x---x------
-|14-14-14-14-14-14-14-14-14-14---15-15-15-15-15---15--14--12--10-----
-|--------------------------------------------------------------------
 Verso(yo utilizo un slide, si no tienes usa bends)                           

-|10/12/7----------------------------12/10/12/7-----------------------
-|--------------7/12-------7/8-----------------------7/8------7/12----
-|--------------------------------------------------------------------
-|--------------------------------------------------------------------
-|--------------------------------------------------------------------
-|--------------------------------------------------------------------
 Coro:                                                                       
-|--------------------------------------------------------------------
-|--------------------------------------------------------------------
-|------------5-5-5-5-5-------------7-7-7-7-7-------------------------
-|-5-5-5-5-5--5-5-5-5-5--5-5-5-5-5--7-7-7-7-7-------------------------
-|-5-5-5-5-5--3-3-3-3-3--5-5-5-5-5--5-5-5-5-5-------------------------
-|-3-3-3-3-3-------------3-3-3-3-3------------------------------------
 
Final del Coro (palm muting)                                                 

-|--------------------------------------------------------------------
-|--------------------------------------------------------------------
-|--------------------------------------------------------------------
-|--------------------------------------------------------------------
-|-2-2-2-2-2-2-2-2-3-3-3-3-3-3-3-3-5-5-5-5-5-5-5-5--------------------
-|--------------------------------------------------------------------
  Puente: (palm muting)                                                       

-|--------------------------------------------------------------------
-|--------------------------------------------------------------------
-|--------------------------------------------------------------------
-|--------------------------------------------------------------------
-|--------------5-5-5-5-5----7-7-7-7-7--------------------------------
-|-5-5-5-5-5----------------------------------------------------------
 Outro:                                                                       

-|--------------------------------------------------------------------
-|--------------------------------------------------------------------
-|-12-12-12-12-12-12-12-12-12-12-12-12-12-12-12--14--12--11--12-------
-|-x--x--x--x--x--x--x--x--x--x--x--x--x--x--x---x---x---x---x--------
-|-10-10-10-10-10-10-10-10-10-10-10-10-10-10-10--12--10--9---10-------
-|--------------------------------------------------------------------
                                                                 
La cancion va asi:

- Intro (2x)
- Verso (2x)
- Coro (3x)
- Final del coro (x1)
- Intro (2x)
- Verso (2x)
- Coro (3x)
- Final del coro (x1)
- Puente (x4)
- Outro (x1)
Suggest correction
Give kudos to tab author, rate the tab!
1 2 3 4 5
comments
print report bad tab
guest
You may want to rate the tab now too:
select rating
Wanna post a correction for this tab? Suggest correction