Oops, an error
Loading. Please wait.

Indeleble Tab

871 views 15 this week
no commentswrite comment
1 2 3 4 5
3 more votes to show rating
add to favorites
launch autoscroll
font size
0
reset
how to read this tab
guitar tuner
Autoscroll
slow
fast
+/-
esc
set tempo
stop
Help us to improve Ultimate-Guitar.com Take our survey!
×
 -------------------------------------------------------
|                Tab y Acordes                          |
|       Realizado por Daniel Cabriles                   |
|       Twitter: @danielcabriles                        |
|       Tab by        |
 -------------------------------------------------------

- Segunda coraboracion que realizo a la pagina, saque esta cancion
de un video del Showcase de su nuevo disco "INDELEBLE"

- Cualquier critica constructiva bienvenida sea, escribir al email
si hay dudas o errores en el tab.

INTRO


Guitarra I (Ritmica)


e |-------------------------------------|------------------------------|
B |-------------------------------------|------------------------------|
G |-------------------------------------|------------------------------|
D |----11--11--13-----11--11--13--------|----11--11--13-----11--11--13-|
A |----11--11--11-----11--11--11--------|----11--11--11-----11--11--11-|
E |--0----------------------------------|-13---------------------------|  x 2


Verso I

Guitarra I (Ritmica)

                                Solo hay dos caminos....

e |-------------------------------------|-------------------------------------|
B |-------------------------------------|-------------------------------------|
G |-------------------------------------|-------------------------------------|
D |----11--11--13-----11--11--13--------|----11--11--13-----11--11--13--------|
A |----11--11--11-----11--11--11--------|----11--11--11-----11--11--11--------|
E |--0----------------------------------|-13----------------------------------|


Guitarra II (Solos)

 ...y otro en que estas con el..

e |-------------------------------------|-------------------------------------|
B |----7s9--9s7--7s9--9s2---------------|----2s7--7s9--9s10s9--7--7s2---------|
G |-------------------------------------|-------------------------------------|
D |-------------------------------------|-------------------------------------|
A |-------------------------------------|-------------------------------------|
E |-------------------------------------|-------------------------------------|


Coro


Guitarra I (Ritmica)

               Yo se que algo aqui...
     E                         G#5

e |--0-0-0-0-0-0-0-0-0-0-0--|--x-x-x-x-x-x-x-x-x-x--|
B |--0-0-0-0-0-0-0-0-0-0-0--|--x-x-x-x-x-x-x-x-x-x--|
G |--1-1-1-1-1-1-1-1-1-1-1--|--x-x-x-x-x-x-x-x-x-x--|
D |--2-2-2-2-2-2-2-2-2-2-2--|--6-6-6-6-6-6-6-6-6-6--|
A |--2-2-2-2-2-2-2-2-2-2-2--|--6-6-6-6-6-6-6-6-6-6--|
E |--0-0-0-0-0-0-0-0-0-0-0--|--4-4-4-4-4-4-4-4-4-4--|


Guitarra II (Solos)


e |----------------------------|---------------------------------|
B |--9-9-9-9-9-11-11-11-11-11--|--12-12-12-12-12-14-14-14-14-14--|
G |----------------------------|---------------------------------|
D |----------------------------|---------------------------------|
A |----------------------------|---------------------------------|
E |----------------------------|---------------------------------|


Guitarra I (Ritmica)

                         ...que me sientes
     E                         G#5       F#5

e |--0-0-0-0-0-0-0-0-0-0-0--|--x-x-x-x-x-x----------|
B |--0-0-0-0-0-0-0-0-0-0-0--|--x-x-x-x-x-x----------|
G |--1-1-1-1-1-1-1-1-1-1-1--|--x-x-x-x-x-x----------|
D |--2-2-2-2-2-2-2-2-2-2-2--|--6-6-6-6-6-4----------|
A |--2-2-2-2-2-2-2-2-2-2-2--|--6-6-6-6-6-4----------|
E |--0-0-0-0-0-0-0-0-0-0-0--|--4-4-4-4-4-2----------|


Guitarra II (Solos)


e |----------------------------|---------------------------------|
B |--9-9-9-9-9-11-11-11-11-11--|--12-12-12-12-12-14--------------|
G |----------------------------|---------------------------------|
D |----------------------------|---------------------------------|
A |----------------------------|---------------------------------|
E |----------------------------|---------------------------------|


Verso II


Guitarra I (Ritmica)

                                                         ....que me sientes

e |-------------------------------------|-------------------------------------|
B |-------------------------------------|-------------------------------------|
G |-------------------------------------|-------------------------------------|
D |----11--11--13-----11--11--13--------|----11--11--13-----11--11--13--------|
A |----11--11--11-----11--11--11--------|----11--11--11-----11--11--11--------|
E |--0----------------------------------|-13----------------------------------|


Guitarra II (Solos)

            ...aunque no me lo digas

e |-------------------------------------|
B |----9s10s9--7--7s9--9s10s9--7--7s2---|
G |-------------------------------------|
D |-------------------------------------|
A |-------------------------------------|
E |-------------------------------------|


Coro


               Yo se que algo aqui...
     E                         G#5

e |--0-0-0-0-0-0-0-0-0-0-0--|--x-x-x-x-x-x-x-x-x-x--|
B |--0-0-0-0-0-0-0-0-0-0-0--|--x-x-x-x-x-x-x-x-x-x--|
G |--1-1-1-1-1-1-1-1-1-1-1--|--x-x-x-x-x-x-x-x-x-x--|
D |--2-2-2-2-2-2-2-2-2-2-2--|--6-6-6-6-6-6-6-6-6-6--|
A |--2-2-2-2-2-2-2-2-2-2-2--|--6-6-6-6-6-6-6-6-6-6--|
E |--0-0-0-0-0-0-0-0-0-0-0--|--4-4-4-4-4-4-4-4-4-4--|


Guitarra II (Solos)


e |----------------------------|---------------------------------|
B |--9-9-9-9-9-11-11-11-11-11--|--12-12-12-12-12-14-14-14-14-14--|
G |----------------------------|---------------------------------|
D |----------------------------|---------------------------------|
A |----------------------------|---------------------------------|
E |----------------------------|---------------------------------|


           ...aun hay algo que debes saber que hay un tercer
     E                         G#5       F#5

e |--0-0-0-0-0-0-0-0-0-0-0--|--x-x-x-x-x-x----------|
B |--0-0-0-0-0-0-0-0-0-0-0--|--x-x-x-x-x-x----------|
G |--1-1-1-1-1-1-1-1-1-1-1--|--x-x-x-x-x-x----------|
D |--2-2-2-2-2-2-2-2-2-2-2--|--6-6-6-6-6-4----------|
A |--2-2-2-2-2-2-2-2-2-2-2--|--6-6-6-6-6-4----------|
E |--0-0-0-0-0-0-0-0-0-0-0--|--4-4-4-4-4-2----------|


Guitarra II (Solos)


e |----------------------------|---------------------------------|
B |--9-9-9-9-9-11-11-11-11-11--|--12-12-12-12-12-14--------------|
G |----------------------------|---------------------------------|
D |----------------------------|---------------------------------|
A |----------------------------|---------------------------------|
E |----------------------------|---------------------------------|


Puente


...camino que voy a recorrer..
     E         F#              C#m9     C#m9/G F#5

e |--0-0-0-0-0-2-2-2-2-2-2--|--0-0-0-0-0-x-x-x-x-x-x-|
B |--0-0-0-0-0-2-2-2-2-2-2--|--0-0-0-0-0-x-x-x-x-x-x-|
G |--1-1-1-1-1-3-3-3-3-3-3--|--4-4-4-4-4-4-4-4-x-x-x-|
D |--2-2-2-2-2-4-4-4-4-4-4--|--2-2-2-2-2-2-2-2-4-4-4-|
A |--2-2-2-2-2-4-4-4-4-4-4--|--4-4-4-4-4-4-4-4-4-4-4-|
E |--0-0-0-0-0-2-2-2-2-2-2--|--x-x-x-x-x-3-3-3-2-2-2-|

     E         F#              C#m9     F#5   E??

e |--0-0-0-0-0-2-2-2-2-2-2--|--0-0-0-0-0-x-x-x-0-0-0-|
B |--0-0-0-0-0-2-2-2-2-2-2--|--0-0-0-0-0-x-x-x-7-7-7-|
G |--1-1-1-1-1-3-3-3-3-3-3--|--4-4-4-4-4-x-x-x-8-8-8-|
D |--2-2-2-2-2-4-4-4-4-4-4--|--2-2-2-2-2-4-4-4-6-6-6-|
A |--2-2-2-2-2-4-4-4-4-4-4--|--4-4-4-4-4-4-4-4-7-7-7-|
E |--0-0-0-0-0-2-2-2-2-2-2--|--x-x-x-x-x-2-2-2-x-x-x-|


Solo


Guitarra I (Ritmica)

     E??                     C#5 D#5 F#5 G#5

e |--0-0-0-0-0-0-0-0-0-0--|--x-x-x-x-x-x-x-x--|   |
B |--7-7-7-7-7-7-7-7-7-7--|--x-x-x-x-x-x-x-x--|   |
G |--8-8-8-8-8-8-8-8-8-8--|--x-x-x-x-x-x-x-x--|   |
D |--6-6-6-6-6-6-6-6-6-6--|--6-6-8-8-x-x-x-x--|   |
A |--7-7-7-7-7-7-7-7-7-7--|--4-4-6-6-4-4-6-6--|   |
E |--x-x-x-x-x-x-x-x-x-x--|----------2-2-4-4--|   |
                                            |  x2
     E??                     C#5 D#5 E5 F#5 |
                                            |
e |--0-0-0-0-0-0-0-0-0-0--|--x-x-x-x-x-x-x--x---| |
B |--7-7-7-7-7-7-7-7-7-7--|--x-x-x-x-x-x-x--x---| |
G |--8-8-8-8-8-8-8-8-8-8--|--x-x-x-x-x-x-x--x---| |
D |--6-6-6-6-6-6-6-6-6-6--|--6-6-8-8-9-9-11-11--| |
A |--7-7-7-7-7-7-7-7-7-7--|--4-4-6-6-7-7-9--9---| |
E |--x-x-x-x-x-x-x-x-x-x--|---------------------| |


Guitarra I (Ritmica)

     E??                     C#5 D#5 E5 F#5

e |--0-0-0-0-0-0-0-0-0-0--|--x-x-x-x-x-x-x--x---|
B |--7-7-7-7-7-7-7-7-7-7--|--x-x-x-x-x-x-x--x---|
G |--8-8-8-8-8-8-8-8-8-8--|--x-x-x-x-x-x-x--x---|
D |--6-6-6-6-6-6-6-6-6-6--|--6-6-8-8-9-9-11-11--|
A |--7-7-7-7-7-7-7-7-7-7--|--4-4-6-6-7-7-9--9---|
E |--x-x-x-x-x-x-x-x-x-x--|---------------------|


Guitarra II (Solos)


e |------------------------|-------------------------|
B |------------------------|----------------------11-|
G |----13-13-11-11---------|----13-13-11-11----------|
D |----------------11-11---|----------------11-11----|
A |----------------------9-|-------------------------|
E |------------------------|-------------------------|


Guitarra I (Ritmica)

     E??                     C#5 D#5 F#5 G#5

e |--0-0-0-0-0-0-0-0-0-0--|--x-x-x-x-x-x-x-x--|
B |--7-7-7-7-7-7-7-7-7-7--|--x-x-x-x-x-x-x-x--|
G |--8-8-8-8-8-8-8-8-8-8--|--x-x-x-x-x-x-x-x--|
D |--6-6-6-6-6-6-6-6-6-6--|--6-6-8-8-x-x-x-x--|
A |--7-7-7-7-7-7-7-7-7-7--|--4-4-6-6-4-4-6-6--|
E |--x-x-x-x-x-x-x-x-x-x--|----------2-2-4-4--|


Guitarra II (Solos)


e |------------------------|-------------------------|
B |------------------------|----------------------11-|
G |----13-13-11-11---------|----13-13-11-11----------|
D |----------------11-11---|----------------11-11----|
A |----------------------9-|-------------------------|
E |------------------------|-------------------------|


Final


Guitarra I (Ritmica)
                      ...aun la tinta indeleble quedara en nuestra piel

     ???                     G#5     F#5

e |--0-0-0-0-0-0-0-0-0-0--|--x-------x--------|
B |--7-7-7-7-7-7-7-7-7-7--|--x-------x--------|
G |--8-8-8-8-8-8-8-8-8-8--|--x-------x--------|
D |--6-6-6-6-6-6-6-6-6-6--|--6-------4--------|
A |--7-7-7-7-7-7-7-7-7-7--|--6-------4--------|
E |--x-x-x-x-x-x-x-x-x-x--|--4-------2--------|


Guitarra II (Solos)


e |------------------------|-------------------------|
B |------------------------|--7s9----9---7--7s2------|
G |------------------------|-------------------------|
D |------------------------|-------------------------|
A |------------------------|-------------------------|
E |------------------------|-------------------------|


Guitarra I (Ritmica)


e |--------------------------|-----------------------------|
B |--------------------------|-----------------------------|
G |--------------------------|-----------------13-11-------|
D |--------------11-13-11----|--------------11-------13----|
A |--11-13-14-11----------14-|--11-13-14-11----------------|
E |--------------------------|-----------------------------|


-----------------------------------------------------


***¿DUDAS?***

Escribir al email: 
Suggest correction
Give kudos to tab author, rate the tab!
1 2 3 4 5
comments
print report bad tab
guest
You may want to rate the tab now too:
select rating
Wanna post a correction for this tab? Suggest correction