Oops, an error
Loading. Please wait.

Malos Tiempos Tab

130 views 6 this week
no commentswrite comment
1 2 3 4 5
3 more votes to show rating
add to favorites
launch autoscroll
font size
0
reset
how to read this tab
guitar tuner
×
Best way to learn
"Malos Tiempos"
Autoscroll
slow
fast
+/-
esc
set tempo
stop
Capo
9th fret
 -------------------------------------------------------
|                Tab y Acordes                          |
|       Realizado por Daniel Cabriles                   |
|       Twitter: @danielcabriles                        |
|       Tab by        |
 -------------------------------------------------------

- Primera coraboracion que realizo a la pagina, saque esta cancion
de un video del Showcase de su nuevo disco "INDELEBLE"

- Cualquier critica constructiva bienvenida sea, escribir al email
si hay dudas o errores en el tab.

Capotraste: 9no Traste

NOTA:
- Los acordes reales estan entre parentesis "()"
- Los acordes fuera de parentesis son visto desde el capotraste
para su facil visualizacion y ubicacion.


INTRO

        Am (F#m)                          C (A)         G (E)
e |-------------------------------------|-----------------------------|
B |--------10---------------10----------|-----9-9-----------9-9-------|
G |------------9h11-------------9h11----|----------9-------------9----|
D |------------------9h11-------------9-|-------------9-------------9-|
A |-----9-------------------------------|-12--------------------------|
E |-------------------------------------|---------------12------------|


        Am (F#m)
e |-------------------------------------|
B |--------10---------------10----------|
G |------------9h11-------------9h11----|
D |------------------9h11-------------9-|
A |-----9-------------------------------|
E |-------------------------------------|

    C (A)             G (E)
e |-----9-9----------------------9--------|
B |---------12------------12--------12----|
G |-------------9-------------9---------9-|
D |----------------9----------------------|
A |-12------------------------------------|
E |-------------------12------------------|


       Am (F#m)
e |---------------------------------------------9-|
B |--------10p9----------------------9------------|
G |--------------11------11------11---------11----|
D |------------------11------11---------11--------|
A |-----9-----------------------------------------|
E |-----------------------------------------------|

e |--------------------9------------------------|
B |---------9---------------------9-------------|
G |-----11---------11---------11---------11-----|
D |-11---------11---------11---------11------11-|
A |---------------------------------------------|
E |---------------------------------------------|


Versos 1:

        Hoy me he dado cuenta que       Las cosas son más frágiles
        Am (F#m)                        G (E)
e |------------------------------------|--------------------------------|
B |------------------------------------|--------------------------------|
G |-----11--11--11--11--11--11--11--11-|--------------------------------|
D |-----11--11--11--11--11--11--11--11-|-9---9---9---9---9---9---9---9--|
A |-----9---9---9---9---9---9---9---9--|-11--11--11--11--11--11--11--11-|
E |------------------------------------|-12--12--12--12--12--12--12--12-|

                                        De lo que crees
        F (D)                           G (E)
e |------------------------------------|--------------------------------|
B |------------------------------------|--------------------------------|
G |------------------------------------|--------------------------------|
D |-----12--12--12--12--12--12--12--12-|-9---9---9---9---9---9---9---9--|
A |-----12--12--12--12--12--12--12--12-|-11--11--11--11--11--11--11--11-|
E |-----10--10--10--10--10--10--10--10-|-12--12--12--12--12--12--12--12-|


Am (F#m)
Lo bello que teníamos

G (E)                        F (D)
También cambió con la estación

G (E)
En cambio


Am (F#m)
Las malas noticias Nunca han tenido

G (E)                   F (D)   G (E)
Un buen momento Eso lo sé


* Coro

C (A)            G (E)
Y será que pasarán

Am (F#m)
Éstos malos tiempo


C (A)
Si algún día

G (E)           Am (F#m)
Volveremos a respirar


Puente:


        Am (F#m)                 C (A)

E |----------------------------|--------------------------------------|
B |--------------9-----------9-|-12p9---------------12p9--------------|
G |-----------9-----------9----|-------12p9---------------12p9--------|
D |-----9h11--------9h11-------|-------------12p11--------------12p11-|
A |----------------------------|--------------------------------------|
E |----------------------------|--------------------------------------|


        Am (F#m)                 C (A)

E |----------------------------|-9---9--9-------------9--9------------|
B |--------------9-----------9-|-12--------12-----12--------12-----12-|
G |-----------9-----------9----|-9-------------9----------------9-----|
D |-----9h11--------9h11-------|-11-----------------------------------|
A |----------------------------|-12-----------------------------------|
E |----------------------------|--------------------------------------|


Versos 2:

Am (F#m)
Todo ésto es un obstáculo más

G (E)                       F (D)
De los que la vida nos pondrá


G (E)
Porque habrán más


Am (F#m)
Ni siquiera la misma gravedad

G (E)                  F (D)
Nos separará  Eso lo sé

                     G (E)
Lo nuestro es más fuerte


* Coro: (Bis)

C (A)           G (E)
Y será que pasarán

Am (F#m)
Éstos malos tiempo


C (A)
Si algún día

G (E)              Am (F#m)
Volveremos a respirar


C (A)          G (E)
Y no importa que el proceso

Am (F#m)
Sea lento

C (A)          G (E)           Am (F#m)
Sólo sé que un dia te voy


A recuperar

recuperar... (x3)


-----------------------------------------------------


***¿DUDAS?***

Escribir al email: 
Suggest correction
Give kudos to tab author, rate the tab!
1 2 3 4 5
comments
print report bad tab
guest
You may want to rate the tab now too:
select rating
Wanna post a correction for this tab? Suggest correction