Oops, an error
Loading. Please wait.

La Cumbia De Los Pajaritos Tab

version 1
version 1

Whole song

3,279 views 57 this week
no commentswrite comment
1 2 3 4 5
1 last vote to show rating
add to favorites
launch autoscroll
font size
0
reset
how to read this tab
guitar tuner
×
Best way to learn
"La Cumbia De Los Pajaritos"
Autoscroll
slow
fast
+/-
esc
set tempo
stop
Aquí tienen mi primer transcripción, si checan algunos errores en ella, 
háganmelo saber. Ésta rola está muy chida, ahí les va.


Riff. 1   (siempre de toca 4 veces)
-----------------------------------------------------------------------
-----------------------------------------------------------------------
-----------------------------------------------------------------------
------------0h-2-2-2-2---0---------------------------------------------
--0-0-0-0-3-----------2------------------------------------------------
-----------------------------------------------------------------------

Riff. 2   (siempre se toca 2 veces) 
--------0-0-0-0h-3-----------------------------------------------------
--1---1------------0-3-------------------------------------------------
----2------------------2-----------------------------------------------
-----------------------------------------------------------------------
-----------------------------------------------------------------------
-----------------------------------------------------------------------


Riff. 3   (siempre se toca 3 veces)
--------0-3-2-1-0------------------------------------------------------
--1---1-----------3-1-0-3-1-0------------------------------------------
----2-------------------------2----------------------------------------
-----------------------------------------------------------------------
-----------------------------------------------------------------------
-----------------------------------------------------------------------

Riff. 1
Riff. 2
Riff. 3


Riff. 4   (siempre se toca 4 veces)
----------8-10/12-12-12----10-8----------------------------------------
--10---10---------------12------10-------------------------------------
-----9-----------------------------------------------------------------
-----------------------------------------------------------------------
-----------------------------------------------------------------------
-----------------------------------------------------------------------

Riff. 5   (siempre se toca 4 veces)
-----------------------------------------------------------------------
----------1------------------------------------------------------------
--2-2-2-2---2-0-0-0-0-4-3----------------------------------------------
-----------------------------------------------------------------------
-----------------------------------------------------------------------
-----------------------------------------------------------------------

Riff. 6   (sólo una vez)
-----------------------------------------------------------------------
--1--------------------------------------------------------------------
--2--------------------------------------------------------------------
-----------------------------------------------------------------------
-----------------------------------------------------------------------
-----------------------------------------------------------------------


Riff. 7 
--3-3-3---3---3/5-5-5---5----------------------------------------------
--------3---3---------5---5--------------------------------------------
-----------------------------------------------------------------------
-----------------------------------------------------------------------
-----------------------------------------------------------------------
-----------------------------------------------------------------------


Riff. 8   (sólo una vez)
--5~~~-----------------------------------------------------------------
--5~~~-----------------------------------------------------------------
-----------------------------------------------------------------------
-----------------------------------------------------------------------
-----------------------------------------------------------------------
-----------------------------------------------------------------------

Se repite todo.


Y listo!!! Eso es todo amigos, yo me despido de ustedes,y si alguien va a 
hacer uso de ésta tablatura avísenme porfa.
Nos vemos pronto.
Suggest correction
Give kudos to tab author, rate the tab!
1 2 3 4 5
comments
print report bad tab
guest
You may want to rate the tab now too:
select rating
Wanna post a correction for this tab? Suggest correction