Oops, an error
Loading. Please wait.

La Cumbia De Los Pajaritos tab

version 2
version 2

Whole song

487 views 1 this week
no commentswrite comment
1 2 3 4 5
3 more votes to show rating
add to favorites
×
Save as Personal and add changes to this tab that will be seen only by you. Learn more ›
×
You can save this tab as Personal to edit and correct it or add notes. All changes will be seen only by you. Learn more »
launch autoscroll
font size
0
reset
how to read this tab
guitar tuner
edit
Autoscroll
slow
fast
+/-
esc
set tempo
stop
SE LA DEDICO AMI MAS RECIENTE AMIGOCHA ZONZHIS :D
sete quiere un guato :P

ESPERO LES GUSTE CUALQUIER DUDA ENVIEN CORRE A LBB_XD@


Riff. 1   (siempre de toca 4 veces)
-----------------------------------------------------------------------
-----------------------------------------------------------------------
-----------------------------------------------------------------------
------------0h-2-2-2-2---0---------------------------------------------
--0-0-0-0-3-----------2-----0------------------------------------------
-----------------------------------------------------------------------


Riff. 2
--------0-0-0-0-1------------------------------------------------------
-----1------------0-3--------------------------------------------------
--2--------------------2-----------------------------------------------
-----------------------------------------------------------------------
-----------------------------------------------------------------------
-----------------------------------------------------------------------


Riff. 3
--------0-0-0-0-3------------------------------------------------------
--1---1------------0-3-------------------------------------------------
----2------------------2-----------------------------------------------
-----------------------------------------------------------------------
-----------------------------------------------------------------------
-----------------------------------------------------------------------


Riff. 4 se toca 3 veces
--------0-3-2-1-0------------------------------------------------------
--1---1------------3-1-0-3-1-0-----------------------------------------
----2--------------------------2---------------------------------------
-----------------------------------------------------------------------
-----------------------------------------------------------------------
-----------------------------------------------------------------------


Riff. 1   (siempre de toca 4 veces)
-----------------------------------------------------------------------
-----------------------------------------------------------------------
-----------------------------------------------------------------------
------------0h-2-2-2-2---0---------------------------------------------
--0-0-0-0-3-----------2-----0------------------------------------------
-----------------------------------------------------------------------


Riff. 2
--------0-0-0-0-1------------------------------------------------------
-----1------------0-3--------------------------------------------------
--2--------------------2-----------------------------------------------
-----------------------------------------------------------------------
-----------------------------------------------------------------------
-----------------------------------------------------------------------


Riff. 3
--------0-0-0-0-3------------------------------------------------------
--1---1------------0-3-------------------------------------------------
----2------------------2-----------------------------------------------
-----------------------------------------------------------------------
-----------------------------------------------------------------------
-----------------------------------------------------------------------


Riff. 4   SE TOCA DOS VECES

--------0-3-2-1-0------------------------------------------------------
--1---1-----------3-1-0-3-1-0------------------------------------------
----2-------------------------2----------------------------------------
-----------------------------------------------------------------------
-----------------------------------------------------------------------
-----------------------------------------------------------------------

Riff. 4   TIENE UNA VARIACION PARA PASAR AL RIFF. 5

--------0-3-2-1-0---------------------8--9/12-----12-----11/8-----------
--1---1-----------3-1-0-3-1-0------10----9/12--12----12--------10H12--12
----2-------------------------2/10--------------------------------------
------------------------------------------------------------------------
------------------------------------------------------------------------
------------------------------------------------------------------------


Riff. 5   ( SE TOCA 2 VECES)
--------8--9/12-----12------11/8----------------------------------------
-----10----9/12--12----12---------10H12--12-----------------------------
--10--------------------------------------------------------------------
------------------------------------------------------------------------
------------------------------------------------------------------------
------------------------------------------------------------------------


Riff. 5   VARIACIO AL FINAL
--------8--9/12-----12------11/8----------------------------------------
-----10----9/12--12----12---------10------------------------------------
--10------------------------------10------------------------------------
------------------------------------------------------------------------
------------------------------------------------------------------------
------------------------------------------------------------------------


Riff. 6   ( se toca 3 veces )
------------------------------------------------------------------------
------------------------------------------------------------------------
--------5--------------4--6---------------------------------------------
-----7--5--7-7/5-5-5-5------5/7-7-7-------------------------------------
------------------------------------------------------------------------
------------------------------------------------------------------------


Riff. 6   variacion
------------------------------------------------------------------------
------------------------------------------------------------------------
--------5--------------4--6----------5----------------------------------
-----7--5--7-7/5-5-5-5------5/7-7-7--5----------------------------------
------------------------------------------------------------------------
------------------------------------------------------------------------


Riff. 7   ( se toca tres veces )
------5----3-3-3---3---3/5-5-5------------------------------------------
----5---5--------3---3--------------------------------------------------
------------------------------------------------------------------------
------------------------------------------------------------------------
------------------------------------------------------------------------
------------------------------------------------------------------------


Riff. 7   VARIACION
------5----3-3-3---3----5-----------------------------------------------
----5---5--------3---3--5-----------------------------------------------
------------------------------------------------------------------------
------------------------------------------------------------------------
------------------------------------------------------------------------
------------------------------------------------------------------------


Riff. 8
--~~~-------------------------------------------------------------------
--~~~-------------------------------------------------------------------
------------------------------------------------------------------------
-------3----------------------------------------------------------------
---2-2---2----2-3-2-----------------------------------------------------
------------------------------------------------------------------------


Riff. 8   variacion
--~~~-------------------------------------------------------------------
--~~~-------------------------------------------------------------------
------------------------------------------------------------------------
-----3------------------------------------------------------------------
---2---2-----2-3-2------------------------------------------------------
------------------------------------------------------------------------

enseguida va el riff. 1


Riff. 1   (siempre de toca 4 veces)
------------------------------------------------------------------------
------------------------------------------------------------------------
------------------------------------------------------------------------
------------0h-2-2-2-2---0----------------------------------------------
--0-0-0-0-3-----------2-----0-------------------------------------------
------------------------------------------------------------------------


Riff. 2
--------0-0-0-0-1-------------------------------------------------------
-----1------------0-3---------------------------------------------------
--2--------------------2------------------------------------------------
------------------------------------------------------------------------
------------------------------------------------------------------------
------------------------------------------------------------------------


Riff. 3
--------0-0-0-0-3------------------------------------------------------
--1---1------------0-3-------------------------------------------------
----2------------------2-----------------------------------------------
-----------------------------------------------------------------------
-----------------------------------------------------------------------
-----------------------------------------------------------------------


Riff. 4 se toca 2 veces
--------0-3-2-1-0------------------------------------------------------
--1---1------------3-1-0-3-1-0-----------------------------------------
----2--------------------------2---------------------------------------
-----------------------------------------------------------------------
-----------------------------------------------------------------------
-----------------------------------------------------------------------


Riff. 4   TIENE UNA VARIACION PARA PASAR AL RIFF. 5

--------0-3-2-1-0---------------------8--9/12-----12-----11/8-----------
--1---1-----------3-1-0-3-1-0------10----9/12--12----12--------10H12--12
----2-------------------------2/10--------------------------------------
------------------------------------------------------------------------
-----------------------------------------------------------------------
-----------------------------------------------------------------------


Riff. 5   ( SE TOCA 2 VECES)
--------8--9/12-----12------11/8----------------------------------------
-----10----9/12--12----12---------10H12--12-----------------------------
--10--------------------------------------------------------------------
------------------------------------------------------------------------
------------------------------------------------------------------------
------------------------------------------------------------------------


Riff. 5   VARIACIO AL FINAL
--------8--9/12-----12------11/8---------------------------------------
-----10----9/12--12----12---------10-----------------------------------
--10------------------------------10-----------------------------------
-----------------------------------------------------------------------
-----------------------------------------------------------------------
-----------------------------------------------------------------------


Riff. 6   ( se toca 4 veces )
-----------------------------------------------------------------------
-----------------------------------------------------------------------
--------5--------------4--6--------------------------------------------
-----7--5--7-7/5-5-5-5------5/7-7-7------------------------------------
-----------------------------------------------------------------------
-----------------------------------------------------------------------

---7---7---9---11----12---11----12---11/-
-----------------------------------------
-----5---7---9----10----9----10----9/----
-7---------------------------------------
-----------------------------------------
-----------------------------------------

----17----16----15----14----13----12---11----12---11-----12---11-
-----------------------------------------------------------------
-14----13----12----11----10----10----9----10----9-----10----9----
-----------------------------------------------------------------
-----------------------------------------------------------------
-----------------------------------------------------------------

RIFF.9 SE REPITE TRES VECES

-5-5-5-3-3-4-5-8---
--5-5-----3--------
-------------------
-------------------
-------------------
-------------------

RIFF. 9 VARIACION SE REPITE 5 VECES

-5-5-5-3-3-4--5/1--
--5-5-----3---5/1--
-------------------
-------------------
-------------------
-------------------

            
            
Suggest correction
Creating personal tab
Creating personal tab
You can edit any tab online and save it as your Personal.

You can edit, replace or remove any tab part or add personal notes – all changes will be seen only by you.

Personal tabs can be accessed anytime from any device, even offline.
Learn more »
Give kudos to tab author, rate the tab!
1 2 3 4 5
comments
print report bad tab
guest
Wanna post a correction for this tab? Suggest correction