Oops, an error
Loading. Please wait.

La Misma Vaina Tab

30 views 1 this week
no commentswrite comment
1 2 3 4 5
3 more votes to show rating
add to favorites
launch autoscroll
font size
0
reset
how to read this tab
guitar tuner
Autoscroll
slow
fast
+/-
esc
set tempo
stop
Help us to improve Ultimate-Guitar.com Take our survey!
×
Esta canción me la pidió Ivan por Facebook, aquí va ps amigo, saludos.


1|-----9-9-9----7---------------7--10-10-10---9h10p9-----|
2|--10------------9---------------------------------10---|
3|-------------------------------------------------------|
4|-------------------------------------------------------|
5|-------------------------------------------------------|
6|-------------------------------------------------------|


1|-----9-9-9---7h9p7---------7-10-10-10---9h10p9---------|
2|--10---------------9---------------------------10------|
3|-------------------------------------------------------|
4|-------------------------------------------------------|
5|-------------------------------------------------------|
6|-------------------------------------------------------|


1|--9------------7-----------7-10-10-10---9h10p9---------|
2|----10-7-----9----------------------------------10-----|
3|-----------9-------------------------------------------|
4|-------------------------------------------------------|
5|-------------------------------------------------------|
6|-------------------------------------------------------|


1|--9------------7-----------7-10-10-10---9---9/14-------|
2|----10-7-----9-----------------------------------------|
3|-----------9-------------------------------------------|
4|-------------------------------------------------------|
5|-------------------------------------------------------|
6|-------------------------------------------------------|


Empieza a cantar - Al fondo (Con efecto Wha-Wha)

1|-----------16-14----------16-14--------------17-14---------17-14--|
2|------12---------------12-----------------12------------12---------|
3|--14----------------14-----------------14------------14------------| (x2)
4|-------------------------------------------------------------------|
5|-------------------------------------------------------------------|
6|-------------------------------------------------------------------|


1|------7-10--p9---------7-7h9p7h9p7h9p7h9p7h9...------------|
2|--/10---------------/9-------------------------------------|
3|-----------------------------------------------------------|   (x3)
4|-----------------------------------------------------------|
5|-----------------------------------------------------------|
6|-----------------------------------------------------------|


1|------7-10-p9--------7-9-h10p9h10p9h10p9h10...-------------|
2|--/10-------------/9---------------------------------------|
3|-----------------------------------------------------------|
4|-----------------------------------------------------------|
5|-----------------------------------------------------------|
6|-----------------------------------------------------------|


Repetir Todo.
Si alguien la corrige, encantado de aceptar crítica.
Saludos
Lualanmi
Suggest correction
Give kudos to tab author, rate the tab!
1 2 3 4 5
comments
print report bad tab
guest
You may want to rate the tab now too:
select rating
Wanna post a correction for this tab? Suggest correction