Oops, an error
Loading. Please wait.

Bajo Este Sol Bass

version 1
version 1

Whole song

25 views 1 this week
no commentswrite comment
1 2 3 4 5
3 more votes to show rating
add to favorites
launch autoscroll
font size
0
reset
guitar tuner
×
Best way to learn
"Bajo Este Sol"
Autoscroll
slow
fast
+/-
esc
set tempo
stop
Esta cancion me gusta mucho y le tengo mucho aprecio ya que fue la primerra que saque

Se las entrego completita, a mi parecer sin fallas, y perfeccionada desde la primera vez


INTRO

G | --------------4/5----------------4/5----------------3/4---------------3/4---
D | -----5-6-7-5---------0--5-6-7-5--------0--3-4-5-3--------0--3-4-5-3---------
A | ----------------------------------------------------------------------------
E | ----------------------------------------------------------------------------

G | --------------4/5----------------4/5----------------3/4-------------------
D | --0---5-6-7-5---------0--5-6-7-5--------0--3-4-5-3-----------7-6-5-4-3-0--
A | --------------------------------------------------------------------------
E | --------------------------------------------------------------------------

G | --------------4/5----------------4/5----------------3/4---------------3/4---
D | -----5-6-7-5---------0--5-6-7-5--------0--3-4-5-3--------0--3-4-5-3---------
A | ----------------------------------------------------------------------------
E | ----------------------------------------------------------------------------

G | --------------4/5----------------4/5-----------
D | --0---5-6-7-5---------0--5-6-7-5--------0------
A | -----------------------------------------------
E | -----------------------------------------------


Esta estructura se repite 2 veces y durante el punteo de la guitarra se repite tambien,
 o sea se toca 3 veces.

'Bajo este sol estoy yo...'

G | -----------------------------------
D | -----------------------------------   ( x2 )
A | ------77777--55555--333333333------  
E | -----------------------------------

'Estoy aqui...'
G | --------------------------
D | --------------------------
A | -----------55555555-------
E | --------------------------

'Borrando...'  
(las x significa que deben tapar las cuerdas para que dejen de sonar)
G | --------------------------------------------------x
D | ------------------------------------33333333------x
A | ------77777--55555--333333--55-333----------------x
E | --------------------------------------------------x


Este ultimo  verso cambia. es asi:

'Bajo este sol estoy yo mi cabeza va a explotar'
G | ----------------------------------
D | ----------------------------------
A | ------77777--55555--333333333-----  
E | ----------------------------------

'Bajo este sol estoy yo tratando de olvidar...'
G | -----------------------------------
D | ------------5-5-3-4-5--------------
A | ------77777-----------333333333----
E | -----------------------------------

'Estoy aqui...'
G | ------------------------
D | ------------------------
A | -----------55555555-----
E | ------------------------

'Sintiendo el olor de tu piel que no puedo olvidar...'
G | -------------------------------------------------------
D | ------------------------------------33333333333333-----
A | ------77777--55555--333333--55-333---------------------
E | -------------------------------------------------------

G | ----------------------------------
D | ----------------------------------
A | ------77777--55555--333333333-----  
E | ----------------------------------

G | ----------------------------
D | ----------------------------
A | ------77777--55555--33------
E | ----------------------------


Cualquier duda, critica o sugerencia haganla al mail que aoparece arriba
Suggest correction
Give kudos to tab author, rate the tab!
1 2 3 4 5
comments
print report bad tab
guest
You may want to rate the tab now too:
select rating
Wanna post a correction for this tab? Suggest correction