Oops, an error
Loading. Please wait.

Bajo Este Sol Bass Tab

version 2
version 2

Whole song

1 view 1 this week
no commentswrite comment
1 2 3 4 5
3 more votes to show rating
add to favorites
launch autoscroll
font size
0
reset
guitar tuner
×
Best way to learn
"Bajo Este Sol"
Autoscroll
slow
fast
+/-
esc
set tempo
stop
Corrección de la INTRO de Bajo

Esta se parece más a la original.
aunque igual tiene pifias (k se arreglan), creo k está mejor 

	Mi	Re		Do		

G --------9----------7-----------5----------5-
D --6-7-9------4-5-7-------2-3-5------2-3-5---
A -7-----7----5-----5-----3-----3----3-----3--
E --------------------------------------------
	Mi	Re		Do		

G --------9----------7----------5~~5-3-------
D --6-7-9------4-5-7------2-3-5-------5-4-3--
A -7-----7----5-----5----3-----3-------------
E -------------------------------------------
	Mi	Re		Do		

G --------9----------7-----------5----------5-
D --6-7-9------4-5-7-------2-3-5------2-3-5---
A -7-----7----5-----5-----3-----3----3-----3--
E --------------------------------------------

	Mi	Re		Do		

G --------9-------------7-----------
D --6-7-9---------4-5-7-------------
A -7-----7-------5-----5---------3--
E ----------------------------------
Suggest correction
Give kudos to tab author, rate the tab!
1 2 3 4 5
comments
print report bad tab
guest
You may want to rate the tab now too:
select rating
Wanna post a correction for this tab? Suggest correction