Oops, an error
Loading. Please wait.

Chow Chow Sen Tab

14 views 1 this week
no commentswrite comment
1 2 3 4 5
3 more votes to show rating
add to favorites
×
Save as Personal and add changes to this tab that will be seen only by you. Learn more ›
×
You can save this tab as Personal to edit and correct it or add notes. All changes will be seen only by you. Learn more »
save as personal
new!
launch autoscroll
font size
0
reset
how to read this tab
guitar tuner
Autoscroll
slow
fast
+/-
esc
set tempo
stop
Este es el punteo inicial, tocado durante los versos:

|------------------------------|
|------------------------------|
|-----6-------------11---------|
|------------------------------|
|---7---7/12-----12----12\7----|
|-5-----------10---------------|

Coro *:

A      D         A        D
Oye estoy, muy bien, muy mal
    A     D     A E
Hola, aquí, contigo   (estoy loco aquí!)
A       D      A      D
Hay que ver si llegas tu
       A       E    A   E
Yo estoy, y te espero


Repite Verso


Otra parte:

A              D
Quedate, no te vayas más
      B                E
Estoy bien aquí, no te rías más
  A               D
Estúpido es tu maldito amor
       B            E
Nunca aprenderé a dejarte ir

(más calmado)
A              D
Quedate, no te vayas más
      B                E
Estoy bien aquí, no te rías más
  A                 D
Estúpido día que te conocí
     B           E        Solo
Mi cabeza muerta, espera igual

Solo
|--------------------14-12--17-14--13h14-12--17-14/13-14/17-|
|-11~--13------11-13----------------------------------------|
|---------10------------------------------------------------|
|-----------------------------------------------------------|
|-----------------------------------------------------------|
|-----------------------------------------------------------|

Toca el punteo x2 con una guitarra, x4 con las dos

Toca el Coro, que se repite y fin!

Espero ke me hayas entendido, por ke veo el tab un poco
confuso, pero igual puede servir.


* en el coro, dependiento del acorde que toque una guitarra,
sera el punteo que toque la otra, al terminar, desliza
al siguiente:

Primera guitarra   A          D             E
|----------------|----------|--------------|-------------|
|----------------|----------|--------------|-------------|
|----------------|-----6----|-------11-----|-------13----|
|----------------|----------|--------------|-------------|
|----------------|---7---7/-|----12----12/-|----14---14/-|
|----------------|-5--------|-10-----------|-12----------|

Eso es todo!
Suggest correction
Give kudos to tab author, rate the tab!
1 2 3 4 5
comments
print report bad tab
guest
Wanna post a correction for this tab? Suggest correction